  0
SECTION
  2
HEADER
  9
$EXTMIN
 10
0
 20
0
  9
$EXTMAX
 10
364
 20
257
  9
$LTSCALE
 40
1
  9
$LIMMIN
 10
0
 20
0
  9
$LIMMAX
 10
364
 20
257
  9
$DIMSCALE
 40
1
  0
ENDSEC
  0
SECTION
  2
TABLES
  0
TABLE
  2
LTYPE
 70
16
  0
LTYPE
  2
CONTINUOUS
 70
64
  3
----------
 72
65
 73
0
 40
0
  0
LTYPE
  2
SAKRA_LT1
 70
64
  3
dashed
 72
65
 73
2
 40
7.5
 49
6
 49
-1.5
  0
LTYPE
  2
SAKRA_LT2
 70
64
  3
dashed spaced
 72
65
 73
2
 40
12
 49
6
 49
-6
  0
LTYPE
  2
SAKRA_LT3
 70
64
  3
long dashed dotted
 72
65
 73
4
 40
15.5
 49
12
 49
-1.5
 49
0.5
 49
-1.5
  0
LTYPE
  2
SAKRA_LT4
 70
64
  3
long dashed double-dotted
 72
65
 73
6
 40
17.5
 49
12
 49
-1.5
 49
0.5
 49
-1.5
 49
0.5
 49
-1.5
  0
LTYPE
  2
SAKRA_LT5
 70
64
  3
long dashed triplicate-dotted
 72
65
 73
8
 40
19.5
 49
12
 49
-1.5
 49
0.5
 49
-1.5
 49
0.5
 49
-1.5
 49
0.5
 49
-1.5
  0
LTYPE
  2
SAKRA_LT6
 70
64
  3
dotted
 72
65
 73
2
 40
2
 49
0.5
 49
-1.5
  0
LTYPE
  2
SAKRA_LT7
 70
64
  3
chain
 72
65
 73
4
 40
18.5
 49
12
 49
-1.5
 49
3.5
 49
-1.5
  0
LTYPE
  2
SAKRA_LT8
 70
64
  3
chain double dash
 72
65
 73
6
 40
23.5
 49
12
 49
-1.5
 49
3.5
 49
-1.5
 49
3.5
 49
-1.5
  0
LTYPE
  2
SAKRA_LT9
 70
64
  3
dashed dotted
 72
65
 73
4
 40
9.5
 49
6
 49
-1.5
 49
0.5
 49
-1.5
  0
LTYPE
  2
SAKRA_LT10
 70
64
  3
double-dashed dotted
 72
65
 73
6
 40
17
 49
6
 49
-1.5
 49
6
 49
-1.5
 49
0.5
 49
-1.5
  0
LTYPE
  2
SAKRA_LT11
 70
64
  3
dashed double-dotted
 72
65
 73
6
 40
11.5
 49
6
 49
-1.5
 49
0.5
 49
-1.5
 49
0.5
 49
-1.5
  0
LTYPE
  2
SAKRA_LT12
 70
64
  3
double-dashed double-dotted
 72
65
 73
8
 40
19
 49
6
 49
-1.5
 49
6
 49
-1.5
 49
0.5
 49
-1.5
 49
0.5
 49
-1.5
  0
LTYPE
  2
SAKRA_LT13
 70
64
  3
dashed triplicate-dotted
 72
65
 73
8
 40
13.5
 49
6
 49
-1.5
 49
0.5
 49
-1.5
 49
0.5
 49
-1.5
 49
0.5
 49
-1.5
  0
LTYPE
  2
SAKRA_LT14
 70
64
  3
double-dashed triplicate-dotted
 72
65
 73
10
 40
21
 49
6
 49
-1.5
 49
6
 49
-1.5
 49
0.5
 49
-1.5
 49
0.5
 49
-1.5
 49
0.5
 49
-1.5
  0
LTYPE
  2
SAKRA_LT15
 70
64
  3
double-dashed triplicate-dotted
 72
65
 73
10
 40
21
 49
6
 49
-1.5
 49
6
 49
-1.5
 49
0.5
 49
-1.5
 49
0.5
 49
-1.5
 49
0.5
 49
-1.5
  0
ENDTAB
  0
TABLE
  0
TABLE
  2
STYLE
 70
2
  0
STYLE
  2
STANDARD
 70
64
 40
0
 41
1
 42
0
 50
0
 71
0
  3
TXT
  4
BIGFONT
  0
STYLE
  2
TATEGAKI
 70
64
 40
0
 41
1
 42
0
 50
0
 71
0
  3
TXT
  4
EXTFONT
  0
ENDTAB
  0
TABLE
  2
LAYER
 70
1
  0
LAYER
  2
Layer1
 70
64
 62
7
  6
CONTINUOUS
  0
ENDTAB
  0
ENDSEC
  0
SECTION
  2
ENTITIES
  0
LINE
  8
Layer1
  6
CONTINUOUS
 62
7
 10
84.0081447540421
20
149.433986928105
 11
44.0081447540421
21
149.433986928105
  0
LINE
  8
Layer1
  6
CONTINUOUS
 62
7
 10
84.0081447540421
20
149.433986928105
 11
84.0081447540421
21
219.433986928105
  0
LINE
  8
Layer1
  6
CONTINUOUS
 62
7
 10
44.0081447540421
20
229.433986928105
 11
74.0081447540421
21
229.433986928105
  0
LINE
  8
Layer1
  6
CONTINUOUS
 62
7
 10
34.0081447540421
20
219.433986928105
 11
34.0081447540421
21
159.433986928105
  0
POLYLINE
  8
Layer1
  6
SAKRA_LT9
 62
1
 66
1
 10
0
 20
0
 30
0
 70
1
  0
VERTEX
  8
Layer1
 10
52.0081447540421
20
159.433986928105
  0
VERTEX
  8
Layer1
 10
79.0081447540421
20
159.433986928105
  0
VERTEX
  8
Layer1
 10
79.0081447540421
20
186.433986928105
  0
VERTEX
  8
Layer1
 10
52.0081447540421
20
186.433986928105
  0
SEQEND
  0
CIRCLE
  8
Layer1
  6
CONTINUOUS
 62
7
 10
52.0081447540421
20
186.433986928105
 40
1
  0
CIRCLE
  8
Layer1
  6
CONTINUOUS
 62
7
 10
52.0081447540421
20
159.433986928105
 40
1
  0
CIRCLE
  8
Layer1
  6
CONTINUOUS
 62
7
 10
79.0081447540421
20
159.433986928105
 40
1
  0
CIRCLE
  8
Layer1
  6
CONTINUOUS
 62
7
 10
79.0081447540421
20
186.433986928105
 40
1
  0
LINE
  8
Layer1
  6
CONTINUOUS
 62
7
 10
44.0081447540421
20
229.433986928105
 11
34.0081447540421
21
219.433986928105
  0
LINE
  8
Layer1
  6
CONTINUOUS
 62
7
 10
34.0081447540421
20
159.433986928105
 11
44.0081447540421
21
149.433986928105
  0
LINE
  8
Layer1
  6
CONTINUOUS
 62
7
 10
74.0081447540421
20
229.433986928105
 11
84.0081447540421
21
219.433986928105
  0
LINE
  8
Layer1
  6
CONTINUOUS
 62
1
 10
80.0688049258219
20
160.494647099884
 11
77.9474845822622
21
158.373326756325
  0
LINE
  8
Layer1
  6
CONTINUOUS
 62
1
 10
77.9474845822622
20
160.494647099884
 11
80.0688049258219
21
158.373326756325
  0
LINE
  8
Layer1
  6
CONTINUOUS
 62
1
 10
80.0688049258219
20
187.494647099884
 11
77.9474845822622
21
185.373326756325
  0
LINE
  8
Layer1
  6
CONTINUOUS
 62
1
 10
77.9474845822622
20
187.494647099884
 11
80.0688049258219
21
185.373326756325
  0
LINE
  8
Layer1
  6
CONTINUOUS
 62
1
 10
53.0688049258219
20
160.494647099884
 11
50.9474845822623
21
158.373326756325
  0
LINE
  8
Layer1
  6
CONTINUOUS
 62
1
 10
50.9474845822623
20
160.494647099884
 11
53.0688049258219
21
158.373326756325
  0
LINE
  8
Layer1
  6
CONTINUOUS
 62
1
 10
53.0688049258219
20
187.494647099884
 11
50.9474845822623
21
185.373326756325
  0
LINE
  8
Layer1
  6
CONTINUOUS
 62
1
 10
50.9474845822623
20
187.494647099884
 11
53.0688049258219
21
185.373326756325
  0
TEXT
  8
Layer1
  6
CONTINUOUS
 62
7
 10
63.1696880853114
20
174.309330713451
 73
3
 11
63.1696880853114
21
174.309330713451
 40
4
 41
1
  1
4-φ2
  0
TEXT
  8
Layer1
  6
CONTINUOUS
 62
7
 10
13.8862431372549
20
187.081547712418
 72
1
 11
13.8862431372549
21
187.081547712418
 40
3
 41
1
 50
90
  1
80
  0
LINE
  8
Layer1
  6
CONTINUOUS
 62
1
 10
13.8862431372549
20
229.433986928105
 11
13.8862431372549
21
149.433986928105
  0
LINE
  8
Layer1
  6
CONTINUOUS
 62
1
 10
13.8862431372549
20
229.433986928105
 11
13.10768708836
21
224.758363923763
  0
LINE
  8
Layer1
  6
CONTINUOUS
 62
1
 10
13.8862431372549
20
229.433986928105
 11
14.6647991861498
21
224.758363923763
  0
LINE
  8
Layer1
  6
CONTINUOUS
 62
1
 10
13.8862431372549
20
149.433986928105
 11
14.6647991861498
21
154.109609932446
  0
LINE
  8
Layer1
  6
CONTINUOUS
 62
1
 10
13.8862431372549
20
149.433986928105
 11
13.10768708836
21
154.109609932446
  0
LINE
  8
Layer1
  6
CONTINUOUS
 62
1
 10
43.0081447540421
20
229.433986928105
 11
11.8862431372549
21
229.433986928105
  0
LINE
  8
Layer1
  6
CONTINUOUS
 62
1
 10
43.0081447540421
20
149.433986928105
 11
11.8862431372549
21
149.433986928105
  0
TEXT
  8
Layer1
  6
CONTINUOUS
 62
7
 10
24.8490666666667
20
213.392324183007
 72
1
 11
24.8490666666667
21
213.392324183007
 40
3
 41
1
 50
90
  1
10
  0
LINE
  8
Layer1
  6
CONTINUOUS
 62
1
 10
24.8490666666667
20
229.433986928105
 11
24.8490666666667
21
219.433986928105
  0
LINE
  8
Layer1
  6
CONTINUOUS
 62
1
 10
43.0081447540421
20
229.433986928105
 11
22.8490666666667
21
229.433986928105
  0
LINE
  8
Layer1
  6
CONTINUOUS
 62
1
 10
33.0081447540421
20
219.433986928105
 11
22.8490666666667
21
219.433986928105
  0
LINE
  8
Layer1
  6
CONTINUOUS
 62
1
 10
24.8490666666667
20
219.433986928105
 11
24.8490666666667
21
211.892324183007
  0
LINE
  8
Layer1
  6
CONTINUOUS
 62
1
 10
24.8490666666667
20
219.433986928105
 11
24.0705106177718
21
214.758363923763
  0
LINE
  8
Layer1
  6
CONTINUOUS
 62
1
 10
24.8490666666667
20
219.433986928105
 11
25.6276227155615
21
214.758363923763
  0
LINE
  8
Layer1
  6
CONTINUOUS
 62
1
 10
24.8490666666667
20
229.433986928105
 11
24.8490666666667
21
231.433986928105
  0
LINE
  8
Layer1
  6
CONTINUOUS
 62
1
 10
24.8490666666667
20
229.433986928105
 11
25.6276227155615
21
234.109609932446
  0
LINE
  8
Layer1
  6
CONTINUOUS
 62
1
 10
24.8490666666667
20
229.433986928105
 11
24.0705106177718
21
234.109609932446
  0
TEXT
  8
Layer1
  6
CONTINUOUS
 62
7
 10
24.8490666666667
20
165.886755555556
 72
1
 11
24.8490666666667
21
165.886755555556
 40
3
 41
1
 50
90
  1
10
  0
LINE
  8
Layer1
  6
CONTINUOUS
 62
1
 10
24.8490666666667
20
149.433986928105
 11
24.8490666666667
21
159.433986928105
  0
LINE
  8
Layer1
  6
CONTINUOUS
 62
1
 10
43.0081447540421
20
149.433986928105
 11
22.8490666666667
21
149.433986928105
  0
LINE
  8
Layer1
  6
CONTINUOUS
 62
1
 10
33.0081447540421
20
159.433986928105
 11
22.8490666666667
21
159.433986928105
  0
LINE
  8
Layer1
  6
CONTINUOUS
 62
1
 10
24.8490666666667
20
159.433986928105
 11
24.8490666666667
21
167.386755555556
  0
LINE
  8
Layer1
  6
CONTINUOUS
 62
1
 10
24.8490666666667
20
159.433986928105
 11
25.6276227155615
21
164.109609932446
  0
LINE
  8
Layer1
  6
CONTINUOUS
 62
1
 10
24.8490666666667
20
159.433986928105
 11
24.0705106177718
21
164.109609932446
  0
LINE
  8
Layer1
  6
CONTINUOUS
 62
1
 10
24.8490666666667
20
149.433986928105
 11
24.8490666666667
21
147.433986928105
  0
LINE
  8
Layer1
  6
CONTINUOUS
 62
1
 10
24.8490666666667
20
149.433986928105
 11
24.0705106177718
21
144.758363923763
  0
LINE
  8
Layer1
  6
CONTINUOUS
 62
1
 10
24.8490666666667
20
149.433986928105
 11
25.6276227155615
21
144.758363923763
  0
TEXT
  8
Layer1
  6
CONTINUOUS
 62
7
 10
57.0066823529412
20
123.740789542484
 72
1
 11
57.0066823529412
21
123.740789542484
 40
3
 41
1
  1
50
  0
LINE
  8
Layer1
  6
CONTINUOUS
 62
1
 10
34.0081447540421
20
123.740789542484
 11
84.0081447540421
21
123.740789542484
  0
LINE
  8
Layer1
  6
CONTINUOUS
 62
1
 10
34.0081447540421
20
123.740789542484
 11
38.6837677583838
21
122.962233493589
  0
LINE
  8
Layer1
  6
CONTINUOUS
 62
1
 10
34.0081447540421
20
123.740789542484
 11
38.6837677583838
21
124.519345591379
  0
LINE
  8
Layer1
  6
CONTINUOUS
 62
1
 10
84.0081447540421
20
123.740789542484
 11
79.3325217497004
21
124.519345591379
  0
LINE
  8
Layer1
  6
CONTINUOUS
 62
1
 10
84.0081447540421
20
123.740789542484
 11
79.3325217497004
21
122.962233493589
  0
LINE
  8
Layer1
  6
CONTINUOUS
 62
1
 10
34.0081447540421
20
158.433986928105
 11
34.0081447540421
21
121.740789542484
  0
LINE
  8
Layer1
  6
CONTINUOUS
 62
1
 10
84.0081447540421
20
148.433986928105
 11
84.0081447540421
21
121.740789542484
  0
TEXT
  8
Layer1
  6
CONTINUOUS
 62
7
 10
49.9417516339869
20
139.575979084967
 72
1
 11
49.9417516339869
21
139.575979084967
 40
3
 41
1
  1
10
  0
LINE
  8
Layer1
  6
CONTINUOUS
 62
1
 10
34.0081447540421
20
139.575979084967
 11
44.0081447540421
21
139.575979084967
  0
LINE
  8
Layer1
  6
CONTINUOUS
 62
1
 10
34.0081447540421
20
158.433986928105
 11
34.0081447540421
21
137.575979084967
  0
LINE
  8
Layer1
  6
CONTINUOUS
 62
1
 10
44.0081447540421
20
148.433986928105
 11
44.0081447540421
21
137.575979084967
  0
LINE
  8
Layer1
  6
CONTINUOUS
 62
1
 10
44.0081447540421
20
139.575979084967
 11
51.4417516339869
21
139.575979084967
  0
LINE
  8
Layer1
  6
CONTINUOUS
 62
1
 10
44.0081447540421
20
139.575979084967
 11
48.6837677583838
21
138.797423036072
  0
LINE
  8
Layer1
  6
CONTINUOUS
 62
1
 10
44.0081447540421
20
139.575979084967
 11
48.6837677583838
21
140.354535133862
  0
LINE
  8
Layer1
  6
CONTINUOUS
 62
1
 10
34.0081447540421
20
139.575979084967
 11
32.0081447540421
21
139.575979084967
  0
LINE
  8
Layer1
  6
CONTINUOUS
 62
1
 10
34.0081447540421
20
139.575979084967
 11
29.3325217497004
21
140.354535133862
  0
LINE
  8
Layer1
  6
CONTINUOUS
 62
1
 10
34.0081447540421
20
139.575979084967
 11
29.3325217497004
21
138.797423036072
  0
TEXT
  8
Layer1
  6
CONTINUOUS
 62
7
 10
69.9184522875817
20
238.241390849673
 72
1
 11
69.9184522875817
21
238.241390849673
 40
3
 41
1
  1
10
  0
LINE
  8
Layer1
  6
CONTINUOUS
 62
1
 10
74.0081447540421
20
238.241390849673
 11
84.0081447540421
21
238.241390849673
  0
LINE
  8
Layer1
  6
CONTINUOUS
 62
1
 10
74.0081447540421
20
230.433986928105
 11
74.0081447540421
21
240.241390849673
  0
LINE
  8
Layer1
  6
CONTINUOUS
 62
1
 10
84.0081447540421
20
220.433986928105
 11
84.0081447540421
21
240.241390849673
  0
LINE
  8
Layer1
  6
CONTINUOUS
 62
1
 10
74.0081447540421
20
238.241390849673
 11
68.4184522875817
21
238.241390849673
  0
LINE
  8
Layer1
  6
CONTINUOUS
 62
1
 10
74.0081447540421
20
238.241390849673
 11
69.3325217497004
21
239.019946898568
  0
LINE
  8
Layer1
  6
CONTINUOUS
 62
1
 10
74.0081447540421
20
238.241390849673
 11
69.3325217497004
21
237.462834800778
  0
LINE
  8
Layer1
  6
CONTINUOUS
 62
1
 10
84.0081447540421
20
238.241390849673
 11
86.0081447540421
21
238.241390849673
  0
LINE
  8
Layer1
  6
CONTINUOUS
 62
1
 10
84.0081447540421
20
238.241390849673
 11
88.6837677583838
21
237.462834800778
  0
LINE
  8
Layer1
  6
CONTINUOUS
 62
1
 10
84.0081447540421
20
238.241390849673
 11
88.6837677583838
21
239.019946898568
  0
TEXT
  8
Layer1
  6
CONTINUOUS
 62
7
 10
65.2600805898039
20
194.933073200523
 72
1
 11
65.2600805898039
21
194.933073200523
 40
3
 41
1
  1
27
  0
LINE
  8
Layer1
  6
CONTINUOUS
 62
1
 10
52.0081447540421
20
194.933073200523
 11
79.0081447540421
21
194.933073200523
  0
LINE
  8
Layer1
  6
CONTINUOUS
 62
1
 10
52.0081447540421
20
194.933073200523
 11
56.6837677583838
21
194.154517151628
  0
LINE
  8
Layer1
  6
CONTINUOUS
 62
1
 10
52.0081447540421
20
194.933073200523
 11
56.6837677583838
21
195.711629249418
  0
LINE
  8
Layer1
  6
CONTINUOUS
 62
1
 10
79.0081447540421
20
194.933073200523
 11
74.3325217497004
21
195.711629249418
  0
LINE
  8
Layer1
  6
CONTINUOUS
 62
1
 10
79.0081447540421
20
194.933073200523
 11
74.3325217497004
21
194.154517151628
  0
LINE
  8
Layer1
  6
CONTINUOUS
 62
1
 10
52.0081447540421
20
187.433986928105
 11
52.0081447540421
21
196.933073200523
  0
LINE
  8
Layer1
  6
CONTINUOUS
 62
1
 10
79.0081447540421
20
187.433986928105
 11
79.0081447540421
21
196.933073200523
  0
TEXT
  8
Layer1
  6
CONTINUOUS
 62
7
 10
88.9093758494118
20
194.933073200523
 72
1
 11
88.9093758494118
21
194.933073200523
 40
3
 41
1
  1
5
  0
LINE
  8
Layer1
  6
CONTINUOUS
 62
1
 10
79.0081447540421
20
194.933073200523
 11
84.0081447540421
21
194.933073200523
  0
LINE
  8
Layer1
  6
CONTINUOUS
 62
1
 10
79.0081447540421
20
187.433986928105
 11
79.0081447540421
21
196.933073200523
  0
LINE
  8
Layer1
  6
CONTINUOUS
 62
1
 10
84.0081447540421
20
192.839705466144
 11
84.0081447540421
21
196.933073200523
  0
LINE
  8
Layer1
  6
CONTINUOUS
 62
1
 10
84.0081447540421
20
194.933073200523
 11
89.6593758494118
21
194.933073200523
  0
LINE
  8
Layer1
  6
CONTINUOUS
 62
1
 10
84.0081447540421
20
194.933073200523
 11
88.6837677583838
21
194.154517151628
  0
LINE
  8
Layer1
  6
CONTINUOUS
 62
1
 10
84.0081447540421
20
194.933073200523
 11
88.6837677583838
21
195.711629249418
  0
LINE
  8
Layer1
  6
CONTINUOUS
 62
1
 10
79.0081447540421
20
194.933073200523
 11
77.0081447540421
21
194.933073200523
  0
LINE
  8
Layer1
  6
CONTINUOUS
 62
1
 10
79.0081447540421
20
194.933073200523
 11
74.3325217497004
21
195.711629249418
  0
LINE
  8
Layer1
  6
CONTINUOUS
 62
1
 10
79.0081447540421
20
194.933073200523
 11
74.3325217497004
21
194.154517151628
  0
TEXT
  8
Layer1
  6
CONTINUOUS
 62
7
 10
93.3997483670588
20
172.880354836078
 72
1
 11
93.3997483670588
21
172.880354836078
 40
3
 41
1
 50
90
  1
27
  0
LINE
  8
Layer1
  6
CONTINUOUS
 62
1
 10
93.3997483670588
20
186.433986928105
 11
93.3997483670588
21
159.433986928105
  0
LINE
  8
Layer1
  6
CONTINUOUS
 62
1
 10
93.3997483670588
20
186.433986928105
 11
92.6211923181639
21
181.758363923763
  0
LINE
  8
Layer1
  6
CONTINUOUS
 62
1
 10
93.3997483670588
20
186.433986928105
 11
94.1783044159537
21
181.758363923763
  0
LINE
  8
Layer1
  6
CONTINUOUS
 62
1
 10
93.3997483670588
20
159.433986928105
 11
94.1783044159537
21
164.109609932446
  0
LINE
  8
Layer1
  6
CONTINUOUS
 62
1
 10
93.3997483670588
20
159.433986928105
 11
92.6211923181639
21
164.109609932446
  0
LINE
  8
Layer1
  6
CONTINUOUS
 62
1
 10
80.0081447540421
20
186.433986928105
 11
95.3997483670588
21
186.433986928105
  0
LINE
  8
Layer1
  6
CONTINUOUS
 62
1
 10
80.0081447540421
20
159.433986928105
 11
95.3997483670588
21
159.433986928105
  0
TEXT
  8
Layer1
  6
CONTINUOUS
 62
7
 10
93.3997483670588
20
141.547533268497
 72
1
 11
93.3997483670588
21
141.547533268497
 40
3
 41
1
 50
90
  1
10
  0
LINE
  8
Layer1
  6
CONTINUOUS
 62
1
 10
93.3997483670588
20
149.433986928105
 11
93.3997483670588
21
159.433986928105
  0
LINE
  8
Layer1
  6
CONTINUOUS
 62
1
 10
85.0081447540421
20
149.433986928105
 11
95.3997483670588
21
149.433986928105
  0
LINE
  8
Layer1
  6
CONTINUOUS
 62
1
 10
93.3997483670588
20
159.433986928105
 11
93.3997483670588
21
159.433986928105
  0
LINE
  8
Layer1
  6
CONTINUOUS
 62
1
 10
93.3997483670588
20
149.433986928105
 11
93.3997483670588
21
140.047533268497
  0
LINE
  8
Layer1
  6
CONTINUOUS
 62
1
 10
93.3997483670588
20
149.433986928105
 11
92.6211923181639
21
144.758363923763
  0
LINE
  8
Layer1
  6
CONTINUOUS
 62
1
 10
93.3997483670588
20
149.433986928105
 11
94.1783044159537
21
144.758363923763
  0
LINE
  8
Layer1
  6
CONTINUOUS
 62
1
 10
93.3997483670588
20
159.433986928105
 11
93.3997483670588
21
161.433986928105
  0
LINE
  8
Layer1
  6
CONTINUOUS
 62
1
 10
93.3997483670588
20
159.433986928105
 11
94.1783044159537
21
164.109609932446
  0
LINE
  8
Layer1
  6
CONTINUOUS
 62
1
 10
93.3997483670588
20
159.433986928105
 11
92.6211923181639
21
164.109609932446
  0
LINE
  8
Layer1
  6
CONTINUOUS
 62
7
 10
125.834677124183
20
149.433986928105
 11
165.834677124183
21
149.433986928105
  0
LINE
  8
Layer1
  6
CONTINUOUS
 62
7
 10
125.834677124183
20
149.433986928105
 11
125.834677124183
21
219.433986928105
  0
LINE
  8
Layer1
  6
CONTINUOUS
 62
7
 10
165.834677124183
20
229.433986928105
 11
135.834677124183
21
229.433986928105
  0
LINE
  8
Layer1
  6
CONTINUOUS
 62
7
 10
175.834677124183
20
219.433986928105
 11
175.834677124183
21
159.433986928105
  0
POLYLINE
  8
Layer1
  6
SAKRA_LT9
 62
1
 66
1
 10
0
 20
0
 30
0
 70
1
  0
VERTEX
  8
Layer1
 10
157.834677124183
20
159.433986928105
  0
VERTEX
  8
Layer1
 10
130.834677124183
20
159.433986928105
  0
VERTEX
  8
Layer1
 10
130.834677124183
20
186.433986928105
  0
VERTEX
  8
Layer1
 10
157.834677124183
20
186.433986928105
  0
SEQEND
  0
CIRCLE
  8
Layer1
  6
CONTINUOUS
 62
7
 10
157.834677124183
20
186.433986928105
 40
1
  0
CIRCLE
  8
Layer1
  6
CONTINUOUS
 62
7
 10
157.834677124183
20
159.433986928105
 40
1
  0
CIRCLE
  8
Layer1
  6
CONTINUOUS
 62
7
 10
130.834677124183
20
159.433986928105
 40
1
  0
CIRCLE
  8
Layer1
  6
CONTINUOUS
 62
7
 10
130.834677124183
20
186.433986928105
 40
1
  0
LINE
  8
Layer1
  6
CONTINUOUS
 62
7
 10
165.834677124183
20
229.433986928105
 11
175.834677124183
21
219.433986928105
  0
LINE
  8
Layer1
  6
CONTINUOUS
 62
7
 10
175.834677124183
20
159.433986928105
 11
165.834677124183
21
149.433986928105
  0
LINE
  8
Layer1
  6
CONTINUOUS
 62
7
 10
135.834677124183
20
229.433986928105
 11
125.834677124183
21
219.433986928105
  0
LINE
  8
Layer1
  6
CONTINUOUS
 62
1
 10
129.774016952403
20
158.373326756325
 11
131.895337295963
21
160.494647099884
  0
LINE
  8
Layer1
  6
CONTINUOUS
 62
1
 10
131.895337295963
20
158.373326756325
 11
129.774016952403
21
160.494647099884
  0
LINE
  8
Layer1
  6
CONTINUOUS
 62
1
 10
129.774016952403
20
185.373326756325
 11
131.895337295963
21
187.494647099884
  0
LINE
  8
Layer1
  6
CONTINUOUS
 62
1
 10
131.895337295963
20
185.373326756325
 11
129.774016952403
21
187.494647099884
  0
LINE
  8
Layer1
  6
CONTINUOUS
 62
1
 10
156.774016952403
20
158.373326756325
 11
158.895337295963
21
160.494647099884
  0
LINE
  8
Layer1
  6
CONTINUOUS
 62
1
 10
158.895337295963
20
158.373326756325
 11
156.774016952403
21
160.494647099884
  0
LINE
  8
Layer1
  6
CONTINUOUS
 62
1
 10
156.774016952403
20
185.373326756325
 11
158.895337295963
21
187.494647099884
  0
LINE
  8
Layer1
  6
CONTINUOUS
 62
1
 10
158.895337295963
20
185.373326756325
 11
156.774016952403
21
187.494647099884
  0
TEXT
  8
Layer1
  6
CONTINUOUS
 62
7
 10
146.673133792914
20
174.309330713451
 72
2
 73
3
 11
146.673133792914
21
174.309330713451
 40
4
 41
1
  1
4-φ2
  0
TEXT
  8
Layer1
  6
CONTINUOUS
 62
7
 10
11.6936784313726
20
97.4300130718955
 73
3
 11
11.6936784313726
21
97.4300130718955
 40
18
 41
1
  1
よろしくおねがいしまつ
  0
ENDSEC
  0
EOF
