  0
SECTION
  2
HEADER
  9
$EXTMIN
 10
0
 20
0
  9
$EXTMAX
 10
297
 20
210
  9
$LTSCALE
 40
1
  9
$LIMMIN
 10
0
 20
0
  9
$LIMMAX
 10
297
 20
210
  9
$DIMSCALE
 40
1
  0
ENDSEC
  0
SECTION
  2
TABLES
  0
TABLE
  2
LTYPE
 70
9
  0
LTYPE
  2
CONTINUOUS
 70
64
  3
----------
 72
65
 73
0
 40
0
  0
LTYPE
  2
DASHED1
 70
64
  3
--  --  --  --  --  --  --  --  
 72
65
 73
2
 40
2.5
 49
1.25
 49
-1.25
  0
LTYPE
  2
DASHED2
 70
64
  3
----    ----    ----    ----    
 72
65
 73
2
 40
5
 49
2.5
 49
-2.5
  0
LTYPE
  2
DASHED3
 70
64
  3
------  ------  ------  ------  
 72
65
 73
2
 40
5
 49
3.75
 49
-1.25
  0
LTYPE
  2
CENTER1
 70
64
  3
----- - ----- - ----- - ----- - 
 72
65
 73
4
 40
7.5
 49
3.75
 49
-1.25
 49
1.25
 49
-1.25
  0
LTYPE
  2
CENTER2
 70
64
  3
----------  --  ----------  --  
 72
65
 73
4
 40
13.75
 49
6.25
 49
-2.5
 49
2.5
 49
-2.5
  0
LTYPE
  2
PHANTOM1
 70
64
  3
--- - - --- - - --- - - --- - - 
 72
65
 73
6
 40
9.5
 49
3.25
 49
-1.25
 49
1.25
 49
-1.25
 49
1.25
 49
-1.25
  0
LTYPE
  2
PHANTOM2
 70
64
  3
--------  -  -  --------  -  -  
 72
65
 73
6
 40
18
 49
8
 49
-2.5
 49
1.25
 49
-2.5
 49
1.25
 49
-2.5
  0
LTYPE
  2
DOT
 70
64
  3
-   -   -   -   -   -   -   -   
 72
65
 73
2
 40
2.5
 49
0.625
 49
-1.875
  0
LTYPE
  2
HOJO
 70
64
  3
-   -   -   -   -   -   -   -   
 72
65
 73
2
 40
2.5
 49
0.625
 49
-1.875
  0
ENDTAB
  0
TABLE
  2
STYLE
 70
2
  0
STYLE
  2
STANDARD
 70
64
 40
0
 41
1
 42
0
 50
0
 71
0
  3
TXT
  4
BIGFONT
  0
STYLE
  2
TATEGAKI
 70
68
 40
0
 41
1
 42
0
 50
0
 71
0
  3
TXT
  4
EXTFONT
  0
ENDTAB
  0
TABLE
  2
LAYER
 70
1
  0
LAYER
  2
Layer1
 70
64
 62
7
  6
CONTINUOUS
  0
ENDTAB
  0
ENDSEC
  0
SECTION
  2
ENTITIES
  0
TEXT
  8
Layer1
 62
7
 10
11.7672
 20
195.97
 73
3
 11
11.7672
 21
195.97
 40
10
 41
1
  1
サーボブラケット ＳＢ－０１Ｂａ
  0
LINE
  8
Layer1
  6
CONTINUOUS
 62
7
 10
134.732
 20
51.1422
 11
80.2319
 21
51.1422
  0
CIRCLE
  8
Layer1
  6
CONTINUOUS
 62
7
 10
83.2943
 20
61.6088
 40
1.5
  0
LINE
  8
Layer1
  6
CONTINUOUS
 62
1
 10
81.7617
 20
74.6474
 11
84.7617
 21
74.6474
  0
LINE
  8
Layer1
  6
CONTINUOUS
 62
1
 10
81.7943
 20
61.6088
 11
84.7943
 21
61.6088
  0
CIRCLE
  8
Layer1
  6
CONTINUOUS
 62
7
 10
83.2943
 20
74.6495
 40
1.5
  0
LINE
  8
Layer1
  6
CONTINUOUS
 62
1
 10
83.2943
 20
61.6088
 11
83.2943
 21
74.6474
  0
LINE
  8
Layer1
  6
CONTINUOUS
 62
7
 10
78.7319
 20
52.6422
 11
78.7319
 21
79.5454
  0
LINE
  8
Layer1
  6
CONTINUOUS
 62
7
 10
80.2235
 20
81.1422
 11
80.3287
 21
81.1422
  0
POLYLINE
  8
Layer1
  6
CONTINUOUS
 62
7
 66
1
 10
0
 20
0
 30
0
  0
VERTEX
  8
Layer1
 10
80.2319
 20
81.1422
  0
VERTEX
  8
Layer1
 10
80.1828
 20
81.1414
  0
VERTEX
  8
Layer1
 10
80.1338
 20
81.139
  0
VERTEX
  8
Layer1
 10
80.0849
 20
81.135
  0
VERTEX
  8
Layer1
 10
80.0361
 20
81.1294
  0
VERTEX
  8
Layer1
 10
79.9876
 20
81.1222
  0
VERTEX
  8
Layer1
 10
79.9393
 20
81.1134
  0
VERTEX
  8
Layer1
 10
79.8913
 20
81.1031
  0
VERTEX
  8
Layer1
 10
79.8437
 20
81.0911
  0
VERTEX
  8
Layer1
 10
79.7965
 20
81.0777
  0
VERTEX
  8
Layer1
 10
79.7497
 20
81.0626
  0
VERTEX
  8
Layer1
 10
79.7035
 20
81.0461
  0
VERTEX
  8
Layer1
 10
79.6579
 20
81.0281
  0
VERTEX
  8
Layer1
 10
79.6128
 20
81.0085
  0
VERTEX
  8
Layer1
 10
79.5685
 20
80.9876
  0
VERTEX
  8
Layer1
 10
79.5248
 20
80.9651
  0
VERTEX
  8
Layer1
 10
79.4819
 20
80.9413
  0
VERTEX
  8
Layer1
 10
79.4398
 20
80.916
  0
VERTEX
  8
Layer1
 10
79.3985
 20
80.8894
  0
VERTEX
  8
Layer1
 10
79.3582
 20
80.8615
  0
VERTEX
  8
Layer1
 10
79.3188
 20
80.8323
  0
VERTEX
  8
Layer1
 10
79.2803
 20
80.8018
  0
VERTEX
  8
Layer1
 10
79.2429
 20
80.77
  0
VERTEX
  8
Layer1
 10
79.2065
 20
80.737
  0
VERTEX
  8
Layer1
 10
79.1712
 20
80.7029
  0
VERTEX
  8
Layer1
 10
79.1371
 20
80.6676
  0
VERTEX
  8
Layer1
 10
79.1041
 20
80.6313
  0
VERTEX
  8
Layer1
 10
79.0724
 20
80.5938
  0
VERTEX
  8
Layer1
 10
79.0419
 20
80.5554
  0
VERTEX
  8
Layer1
 10
79.0126
 20
80.516
  0
VERTEX
  8
Layer1
 10
78.9847
 20
80.4756
  0
VERTEX
  8
Layer1
 10
78.9581
 20
80.4343
  0
VERTEX
  8
Layer1
 10
78.9329
 20
80.3922
  0
VERTEX
  8
Layer1
 10
78.909
 20
80.3493
  0
VERTEX
  8
Layer1
 10
78.8866
 20
80.3057
  0
VERTEX
  8
Layer1
 10
78.8656
 20
80.2613
  0
VERTEX
  8
Layer1
 10
78.8461
 20
80.2163
  0
VERTEX
  8
Layer1
 10
78.828
 20
80.1706
  0
VERTEX
  8
Layer1
 10
78.8115
 20
80.1244
  0
VERTEX
  8
Layer1
 10
78.7965
 20
80.0777
  0
VERTEX
  8
Layer1
 10
78.783
 20
80.0305
  0
VERTEX
  8
Layer1
 10
78.7711
 20
79.9829
  0
VERTEX
  8
Layer1
 10
78.7607
 20
79.9349
  0
VERTEX
  8
Layer1
 10
78.7519
 20
79.8866
  0
VERTEX
  8
Layer1
 10
78.7447
 20
79.838
  0
VERTEX
  8
Layer1
 10
78.7391
 20
79.7893
  0
VERTEX
  8
Layer1
 10
78.7351
 20
79.7403
  0
VERTEX
  8
Layer1
 10
78.7327
 20
79.6913
  0
VERTEX
  8
Layer1
 10
78.7319
 20
79.6422
  0
SEQEND
  0
POLYLINE
  8
Layer1
  6
CONTINUOUS
 62
7
 66
1
 10
0
 20
0
 30
0
  0
VERTEX
  8
Layer1
 10
80.2334
 20
51.144
  0
VERTEX
  8
Layer1
 10
80.1844
 20
51.1448
  0
VERTEX
  8
Layer1
 10
80.1353
 20
51.1472
  0
VERTEX
  8
Layer1
 10
80.0864
 20
51.1512
  0
VERTEX
  8
Layer1
 10
80.0377
 20
51.1568
  0
VERTEX
  8
Layer1
 10
79.9891
 20
51.164
  0
VERTEX
  8
Layer1
 10
79.9408
 20
51.1728
  0
VERTEX
  8
Layer1
 10
79.8928
 20
51.1832
  0
VERTEX
  8
Layer1
 10
79.8452
 20
51.1951
  0
VERTEX
  8
Layer1
 10
79.798
 20
51.2086
  0
VERTEX
  8
Layer1
 10
79.7513
 20
51.2236
  0
VERTEX
  8
Layer1
 10
79.7051
 20
51.2401
  0
VERTEX
  8
Layer1
 10
79.6594
 20
51.2582
  0
VERTEX
  8
Layer1
 10
79.6144
 20
51.2777
  0
VERTEX
  8
Layer1
 10
79.57
 20
51.2987
  0
VERTEX
  8
Layer1
 10
79.5264
 20
51.3211
  0
VERTEX
  8
Layer1
 10
79.4834
 20
51.345
  0
VERTEX
  8
Layer1
 10
79.4413
 20
51.3702
  0
VERTEX
  8
Layer1
 10
79.4001
 20
51.3968
  0
VERTEX
  8
Layer1
 10
79.3597
 20
51.4247
  0
VERTEX
  8
Layer1
 10
79.3203
 20
51.454
  0
VERTEX
  8
Layer1
 10
79.2819
 20
51.4845
  0
VERTEX
  8
Layer1
 10
79.2444
 20
51.5162
  0
VERTEX
  8
Layer1
 10
79.2081
 20
51.5492
  0
VERTEX
  8
Layer1
 10
79.1728
 20
51.5833
  0
VERTEX
  8
Layer1
 10
79.1386
 20
51.6186
  0
VERTEX
  8
Layer1
 10
79.1057
 20
51.655
  0
VERTEX
  8
Layer1
 10
79.0739
 20
51.6924
  0
VERTEX
  8
Layer1
 10
79.0434
 20
51.7309
  0
VERTEX
  8
Layer1
 10
79.0142
 20
51.7703
  0
VERTEX
  8
Layer1
 10
78.9862
 20
51.8106
  0
VERTEX
  8
Layer1
 10
78.9596
 20
51.8519
  0
VERTEX
  8
Layer1
 10
78.9344
 20
51.894
  0
VERTEX
  8
Layer1
 10
78.9106
 20
51.9369
  0
VERTEX
  8
Layer1
 10
78.8881
 20
51.9806
  0
VERTEX
  8
Layer1
 10
78.8671
 20
52.0249
  0
VERTEX
  8
Layer1
 10
78.8476
 20
52.07
  0
VERTEX
  8
Layer1
 10
78.8296
 20
52.1156
  0
VERTEX
  8
Layer1
 10
78.8131
 20
52.1618
  0
VERTEX
  8
Layer1
 10
78.798
 20
52.2086
  0
VERTEX
  8
Layer1
 10
78.7846
 20
52.2558
  0
VERTEX
  8
Layer1
 10
78.7726
 20
52.3034
  0
VERTEX
  8
Layer1
 10
78.7623
 20
52.3514
  0
VERTEX
  8
Layer1
 10
78.7535
 20
52.3996
  0
VERTEX
  8
Layer1
 10
78.7463
 20
52.4482
  0
VERTEX
  8
Layer1
 10
78.7407
 20
52.497
  0
VERTEX
  8
Layer1
 10
78.7367
 20
52.5459
  0
VERTEX
  8
Layer1
 10
78.7342
 20
52.5949
  0
VERTEX
  8
Layer1
 10
78.7334
 20
52.644
  0
SEQEND
  0
POLYLINE
  8
Layer1
  6
CONTINUOUS
 62
7
 66
1
 10
0
 20
0
 30
0
  0
VERTEX
  8
Layer1
 10
134.731
 20
51.104
  0
VERTEX
  8
Layer1
 10
134.78
 20
51.1048
  0
VERTEX
  8
Layer1
 10
134.83
 20
51.1073
  0
VERTEX
  8
Layer1
 10
134.879
 20
51.1114
  0
VERTEX
  8
Layer1
 10
134.928
 20
51.1171
  0
VERTEX
  8
Layer1
 10
134.977
 20
51.1244
  0
VERTEX
  8
Layer1
 10
135.025
 20
51.1334
  0
VERTEX
  8
Layer1
 10
135.074
 20
51.144
  0
VERTEX
  8
Layer1
 10
135.122
 20
51.1561
  0
VERTEX
  8
Layer1
 10
135.169
 20
51.1699
  0
VERTEX
  8
Layer1
 10
135.216
 20
51.1852
  0
VERTEX
  8
Layer1
 10
135.263
 20
51.2021
  0
VERTEX
  8
Layer1
 10
135.309
 20
51.2205
  0
VERTEX
  8
Layer1
 10
135.354
 20
51.2404
  0
VERTEX
  8
Layer1
 10
135.399
 20
51.2618
  0
VERTEX
  8
Layer1
 10
135.443
 20
51.2847
  0
VERTEX
  8
Layer1
 10
135.486
 20
51.309
  0
VERTEX
  8
Layer1
 10
135.528
 20
51.3347
  0
VERTEX
  8
Layer1
 10
135.57
 20
51.3619
  0
VERTEX
  8
Layer1
 10
135.61
 20
51.3904
  0
VERTEX
  8
Layer1
 10
135.65
 20
51.4202
  0
VERTEX
  8
Layer1
 10
135.689
 20
51.4513
  0
VERTEX
  8
Layer1
 10
135.727
 20
51.4837
  0
VERTEX
  8
Layer1
 10
135.763
 20
51.5173
  0
VERTEX
  8
Layer1
 10
135.799
 20
51.5521
  0
VERTEX
  8
Layer1
 10
135.833
 20
51.5881
  0
VERTEX
  8
Layer1
 10
135.866
 20
51.6252
  0
VERTEX
  8
Layer1
 10
135.898
 20
51.6634
  0
VERTEX
  8
Layer1
 10
135.929
 20
51.7026
  0
VERTEX
  8
Layer1
 10
135.958
 20
51.7428
  0
VERTEX
  8
Layer1
 10
135.986
 20
51.784
  0
VERTEX
  8
Layer1
 10
136.013
 20
51.8261
  0
VERTEX
  8
Layer1
 10
136.039
 20
51.869
  0
VERTEX
  8
Layer1
 10
136.063
 20
51.9128
  0
VERTEX
  8
Layer1
 10
136.085
 20
51.9573
  0
VERTEX
  8
Layer1
 10
136.106
 20
52.0026
  0
VERTEX
  8
Layer1
 10
136.126
 20
52.0485
  0
VERTEX
  8
Layer1
 10
136.144
 20
52.0951
  0
VERTEX
  8
Layer1
 10
136.161
 20
52.1423
  0
VERTEX
  8
Layer1
 10
136.176
 20
52.1899
  0
VERTEX
  8
Layer1
 10
136.19
 20
52.2381
  0
VERTEX
  8
Layer1
 10
136.202
 20
52.2866
  0
VERTEX
  8
Layer1
 10
136.212
 20
52.3356
  0
VERTEX
  8
Layer1
 10
136.221
 20
52.3848
  0
VERTEX
  8
Layer1
 10
136.228
 20
52.4344
  0
VERTEX
  8
Layer1
 10
136.234
 20
52.4841
  0
VERTEX
  8
Layer1
 10
136.238
 20
52.534
  0
VERTEX
  8
Layer1
 10
136.24
 20
52.584
  0
VERTEX
  8
Layer1
 10
136.241
 20
52.6341
  0
SEQEND
  0
POLYLINE
  8
Layer1
  6
CONTINUOUS
 62
7
 66
1
 10
0
 20
0
 30
0
  0
VERTEX
  8
Layer1
 10
134.741
 20
81.1278
  0
VERTEX
  8
Layer1
 10
134.79
 20
81.127
  0
VERTEX
  8
Layer1
 10
134.839
 20
81.1246
  0
VERTEX
  8
Layer1
 10
134.888
 20
81.1206
  0
VERTEX
  8
Layer1
 10
134.937
 20
81.115
  0
VERTEX
  8
Layer1
 10
134.985
 20
81.1078
  0
VERTEX
  8
Layer1
 10
135.034
 20
81.099
  0
VERTEX
  8
Layer1
 10
135.082
 20
81.0886
  0
VERTEX
  8
Layer1
 10
135.129
 20
81.0767
  0
VERTEX
  8
Layer1
 10
135.176
 20
81.0632
  0
VERTEX
  8
Layer1
 10
135.223
 20
81.0482
  0
VERTEX
  8
Layer1
 10
135.269
 20
81.0317
  0
VERTEX
  8
Layer1
 10
135.315
 20
81.0136
  0
VERTEX
  8
Layer1
 10
135.36
 20
80.9941
  0
VERTEX
  8
Layer1
 10
135.404
 20
80.9731
  0
VERTEX
  8
Layer1
 10
135.448
 20
80.9507
  0
VERTEX
  8
Layer1
 10
135.491
 20
80.9269
  0
VERTEX
  8
Layer1
 10
135.533
 20
80.9016
  0
VERTEX
  8
Layer1
 10
135.574
 20
80.875
  0
VERTEX
  8
Layer1
 10
135.615
 20
80.8471
  0
VERTEX
  8
Layer1
 10
135.654
 20
80.8179
  0
VERTEX
  8
Layer1
 10
135.693
 20
80.7873
  0
VERTEX
  8
Layer1
 10
135.73
 20
80.7556
  0
VERTEX
  8
Layer1
 10
135.766
 20
80.7226
  0
VERTEX
  8
Layer1
 10
135.802
 20
80.6885
  0
VERTEX
  8
Layer1
 10
135.836
 20
80.6532
  0
VERTEX
  8
Layer1
 10
135.869
 20
80.6168
  0
VERTEX
  8
Layer1
 10
135.901
 20
80.5794
  0
VERTEX
  8
Layer1
 10
135.931
 20
80.541
  0
VERTEX
  8
Layer1
 10
135.96
 20
80.5015
  0
VERTEX
  8
Layer1
 10
135.988
 20
80.4612
  0
VERTEX
  8
Layer1
 10
136.015
 20
80.4199
  0
VERTEX
  8
Layer1
 10
136.04
 20
80.3778
  0
VERTEX
  8
Layer1
 10
136.064
 20
80.3349
  0
VERTEX
  8
Layer1
 10
136.086
 20
80.2913
  0
VERTEX
  8
Layer1
 10
136.107
 20
80.2469
  0
VERTEX
  8
Layer1
 10
136.127
 20
80.2019
  0
VERTEX
  8
Layer1
 10
136.145
 20
80.1562
  0
VERTEX
  8
Layer1
 10
136.161
 20
80.11
  0
VERTEX
  8
Layer1
 10
136.176
 20
80.0633
  0
VERTEX
  8
Layer1
 10
136.19
 20
80.0161
  0
VERTEX
  8
Layer1
 10
136.202
 20
79.9684
  0
VERTEX
  8
Layer1
 10
136.212
 20
79.9205
  0
VERTEX
  8
Layer1
 10
136.221
 20
79.8722
  0
VERTEX
  8
Layer1
 10
136.228
 20
79.8236
  0
VERTEX
  8
Layer1
 10
136.234
 20
79.7749
  0
VERTEX
  8
Layer1
 10
136.238
 20
79.7259
  0
VERTEX
  8
Layer1
 10
136.24
 20
79.6769
  0
VERTEX
  8
Layer1
 10
136.241
 20
79.6278
  0
SEQEND
  0
LINE
  8
Layer1
  6
CONTINUOUS
 62
7
 10
86.8819
 20
51.1422
 11
86.8819
 21
58.1422
  0
LINE
  8
Layer1
  6
CONTINUOUS
 62
7
 10
136.233
 20
79.6422
 11
136.233
 21
52.482
  0
LINE
  8
Layer1
  6
CONTINUOUS
 62
7
 10
78.7335
 20
78.6422
 11
85.7335
 21
78.6422
  0
LINE
  8
Layer1
  6
CONTINUOUS
 62
7
 10
85.7335
 20
78.6422
 11
85.7335
 21
57.6422
  0
LINE
  8
Layer1
  6
CONTINUOUS
 62
7
 10
85.7335
 20
57.6422
 11
78.7335
 21
57.6422
  0
LINE
  8
Layer1
  6
CONTINUOUS
 62
7
 10
129.232
 20
57.6422
 11
129.232
 21
78.6422
  0
LINE
  8
Layer1
  6
CONTINUOUS
 62
7
 10
86.2644
 20
79.6177
 11
86.2644
 21
81.0902
  0
LINE
  8
Layer1
  6
CONTINUOUS
 62
7
 10
128.71
 20
79.6379
 11
128.71
 21
81.1379
  0
LINE
  8
Layer1
  6
CONTINUOUS
 62
7
 10
134.732
 20
81.1422
 11
128.71
 21
81.1422
  0
LINE
  8
Layer1
  6
CONTINUOUS
 62
7
 10
134.732
 20
79.6422
 11
128.71
 21
79.6422
  0
LINE
  8
Layer1
  6
CONTINUOUS
 62
7
 10
80.3287
 20
81.1422
 11
86.2644
 21
81.1422
  0
LINE
  8
Layer1
  6
CONTINUOUS
 62
7
 10
80.2319
 20
79.6177
 11
86.2644
 21
79.6177
  0
LINE
  8
Layer1
  6
CONTINUOUS
 62
7
 10
134.732
 20
79.6422
 11
134.732
 21
78.6422
  0
LINE
  8
Layer1
  6
CONTINUOUS
 62
7
 10
134.732
 20
57.6422
 11
134.732
 21
52.6422
  0
LINE
  8
Layer1
  6
CONTINUOUS
 62
7
 10
80.2319
 20
79.6177
 11
80.2319
 21
78.6422
  0
LINE
  8
Layer1
  6
CONTINUOUS
 62
7
 10
80.2319
 20
57.6422
 11
80.2319
 21
52.6422
  0
LINE
  8
Layer1
  6
CONTINUOUS
 62
7
 10
134.732
 20
52.6422
 11
128.15
 21
52.6422
  0
LINE
  8
Layer1
  6
CONTINUOUS
 62
7
 10
80.2319
 20
52.6422
 11
86.8644
 21
52.6422
  0
LINE
  8
Layer1
  6
CONTINUOUS
 62
7
 10
86.8819
 20
58.1422
 11
128.082
 21
58.1422
  0
LINE
  8
Layer1
  6
CONTINUOUS
 62
7
 10
128.082
 20
58.1422
 11
128.082
 21
51.1422
  0
LINE
  8
Layer1
  6
CONTINUOUS
 62
7
 10
129.232
 20
78.6422
 11
136.232
 21
78.6422
  0
LINE
  8
Layer1
  6
CONTINUOUS
 62
7
 10
136.232
 20
57.6422
 11
129.232
 21
57.6422
  0
CIRCLE
  8
Layer1
  6
CONTINUOUS
 62
7
 10
131.666
 20
61.6088
 40
1.5
  0
LINE
  8
Layer1
  6
CONTINUOUS
 62
1
 10
133.199
 20
74.6474
 11
130.199
 21
74.6474
  0
LINE
  8
Layer1
  6
CONTINUOUS
 62
1
 10
133.166
 20
61.6088
 11
130.166
 21
61.6088
  0
CIRCLE
  8
Layer1
  6
CONTINUOUS
 62
7
 10
131.666
 20
74.6495
 40
1.5
  0
LINE
  8
Layer1
  6
CONTINUOUS
 62
1
 10
131.666
 20
61.6088
 11
131.666
 21
74.6474
  0
POLYLINE
  8
Layer1
  6
CONTINUOUS
 62
5
 66
1
 10
0
 20
0
 30
0
 70
1
  0
VERTEX
  8
Layer1
 10
25.4681
 20
73.3252
  0
VERTEX
  8
Layer1
 10
26.9681
 20
73.3252
  0
VERTEX
  8
Layer1
 10
26.9681
 20
76.3252
  0
VERTEX
  8
Layer1
 10
25.4681
 20
76.3252
  0
SEQEND
  0
POLYLINE
  8
Layer1
  6
CONTINUOUS
 62
5
 66
1
 10
0
 20
0
 30
0
 70
1
  0
VERTEX
  8
Layer1
 10
25.4681
 20
60.7231
  0
VERTEX
  8
Layer1
 10
26.9681
 20
60.7231
  0
VERTEX
  8
Layer1
 10
26.9681
 20
63.7231
  0
VERTEX
  8
Layer1
 10
25.4681
 20
63.7231
  0
SEQEND
  0
POLYLINE
  8
Layer1
  6
CONTINUOUS
 62
5
 66
1
 10
0
 20
0
 30
0
 70
1
  0
VERTEX
  8
Layer1
 10
49.9716
 20
60.7231
  0
VERTEX
  8
Layer1
 10
51.4716
 20
60.7231
  0
VERTEX
  8
Layer1
 10
51.4716
 20
63.7231
  0
VERTEX
  8
Layer1
 10
49.9716
 20
63.7231
  0
SEQEND
  0
POLYLINE
  8
Layer1
  6
CONTINUOUS
 62
5
 66
1
 10
0
 20
0
 30
0
 70
1
  0
VERTEX
  8
Layer1
 10
49.9716
 20
73.3252
  0
VERTEX
  8
Layer1
 10
51.4716
 20
73.3252
  0
VERTEX
  8
Layer1
 10
51.4716
 20
76.3252
  0
VERTEX
  8
Layer1
 10
49.9716
 20
76.3252
  0
SEQEND
  0
POLYLINE
  8
Layer1
  6
CONTINUOUS
 62
5
 66
1
 10
0
 20
0
 30
0
 70
1
  0
VERTEX
  8
Layer1
 10
45.4698
 20
81.5302
  0
VERTEX
  8
Layer1
 10
42.4698
 20
81.5302
  0
VERTEX
  8
Layer1
 10
42.4698
 20
80.0302
  0
VERTEX
  8
Layer1
 10
45.4698
 20
80.0302
  0
SEQEND
  0
POLYLINE
  8
Layer1
  6
CONTINUOUS
 62
5
 66
1
 10
0
 20
0
 30
0
 70
1
  0
VERTEX
  8
Layer1
 10
31.4698
 20
81.5302
  0
VERTEX
  8
Layer1
 10
34.4698
 20
81.5302
  0
VERTEX
  8
Layer1
 10
34.4698
 20
80.0302
  0
VERTEX
  8
Layer1
 10
31.4698
 20
80.0302
  0
SEQEND
  0
LINE
  8
Layer1
  6
CONTINUOUS
 62
7
 10
49.9716
 20
51.5302
 11
26.9681
 21
51.5302
  0
LINE
  8
Layer1
  6
CONTINUOUS
 62
5
 10
27.4698
 20
80.0302
 11
49.4698
 21
80.0302
  0
LINE
  8
Layer1
  6
CONTINUOUS
 62
1
 10
38.4698
 20
51.5302
 11
38.4698
 21
81.5302
  0
LINE
  8
Layer1
  6
CONTINUOUS
 62
7
 10
27.4698
 20
81.5302
 11
49.4698
 21
81.5302
  0
LINE
  8
Layer1
  6
CONTINUOUS
 62
7
 10
27.4698
 20
58.0302
 11
25.4681
 21
58.0302
  0
LINE
  8
Layer1
  6
CONTINUOUS
 62
7
 10
25.4681
 20
53.0302
 11
25.4681
 21
79.0302
  0
LINE
  8
Layer1
  6
CONTINUOUS
 62
7
 10
25.4681
 20
79.0302
 11
27.4698
 21
79.0302
  0
LINE
  8
Layer1
  6
CONTINUOUS
 62
7
 10
27.4698
 20
79.0302
 11
27.4698
 21
81.5302
  0
LINE
  8
Layer1
  6
CONTINUOUS
 62
7
 10
49.4698
 20
81.5302
 11
49.4698
 21
79.0302
  0
LINE
  8
Layer1
  6
CONTINUOUS
 62
7
 10
49.4698
 20
79.0302
 11
51.4716
 21
79.0302
  0
LINE
  8
Layer1
  6
CONTINUOUS
 62
7
 10
51.4716
 20
79.0302
 11
51.4716
 21
58.0302
  0
LINE
  8
Layer1
  6
CONTINUOUS
 62
7
 10
51.4716
 20
58.0302
 11
49.4698
 21
58.0302
  0
LINE
  8
Layer1
  6
CONTINUOUS
 62
7
 10
49.4698
 20
58.0302
 11
49.4698
 21
51.5302
  0
LINE
  8
Layer1
  6
CONTINUOUS
 62
7
 10
27.4698
 20
51.5302
 11
27.4698
 21
58.0302
  0
LINE
  8
Layer1
  6
CONTINUOUS
 62
7
 10
51.4716
 20
58.0302
 11
51.4716
 21
53.03
  0
LINE
  8
Layer1
  6
CONTINUOUS
 62
5
 10
26.9681
 20
79.0302
 11
26.9681
 21
58.0302
  0
LINE
  8
Layer1
  6
CONTINUOUS
 62
5
 10
49.9716
 20
79.0302
 11
49.9716
 21
58.0302
  0
POLYLINE
  8
Layer1
  6
CONTINUOUS
 62
7
 66
1
 10
0
 20
0
 30
0
  0
VERTEX
  8
Layer1
 10
25.4681
 20
53.0302
  0
VERTEX
  8
Layer1
 10
25.4689
 20
52.9811
  0
VERTEX
  8
Layer1
 10
25.4713
 20
52.9321
  0
VERTEX
  8
Layer1
 10
25.4753
 20
52.8831
  0
VERTEX
  8
Layer1
 10
25.4809
 20
52.8344
  0
VERTEX
  8
Layer1
 10
25.4881
 20
52.7858
  0
VERTEX
  8
Layer1
 10
25.4969
 20
52.7375
  0
VERTEX
  8
Layer1
 10
25.5073
 20
52.6896
  0
VERTEX
  8
Layer1
 10
25.5192
 20
52.6419
  0
VERTEX
  8
Layer1
 10
25.5327
 20
52.5947
  0
VERTEX
  8
Layer1
 10
25.5477
 20
52.548
  0
VERTEX
  8
Layer1
 10
25.5642
 20
52.5018
  0
VERTEX
  8
Layer1
 10
25.5823
 20
52.4561
  0
VERTEX
  8
Layer1
 10
25.6018
 20
52.4111
  0
VERTEX
  8
Layer1
 10
25.6228
 20
52.3667
  0
VERTEX
  8
Layer1
 10
25.6452
 20
52.3231
  0
VERTEX
  8
Layer1
 10
25.669
 20
52.2802
  0
VERTEX
  8
Layer1
 10
25.6943
 20
52.2381
  0
VERTEX
  8
Layer1
 10
25.7209
 20
52.1968
  0
VERTEX
  8
Layer1
 10
25.7488
 20
52.1565
  0
VERTEX
  8
Layer1
 10
25.778
 20
52.117
  0
VERTEX
  8
Layer1
 10
25.8086
 20
52.0786
  0
VERTEX
  8
Layer1
 10
25.8403
 20
52.0412
  0
VERTEX
  8
Layer1
 10
25.8733
 20
52.0048
  0
VERTEX
  8
Layer1
 10
25.9074
 20
51.9695
  0
VERTEX
  8
Layer1
 10
25.9427
 20
51.9354
  0
VERTEX
  8
Layer1
 10
25.9791
 20
51.9024
  0
VERTEX
  8
Layer1
 10
26.0165
 20
51.8707
  0
VERTEX
  8
Layer1
 10
26.0549
 20
51.8401
  0
VERTEX
  8
Layer1
 10
26.0944
 20
51.8109
  0
VERTEX
  8
Layer1
 10
26.1347
 20
51.783
  0
VERTEX
  8
Layer1
 10
26.176
 20
51.7564
  0
VERTEX
  8
Layer1
 10
26.2181
 20
51.7311
  0
VERTEX
  8
Layer1
 10
26.261
 20
51.7073
  0
VERTEX
  8
Layer1
 10
26.3046
 20
51.6849
  0
VERTEX
  8
Layer1
 10
26.349
 20
51.6639
  0
VERTEX
  8
Layer1
 10
26.3941
 20
51.6444
  0
VERTEX
  8
Layer1
 10
26.4397
 20
51.6263
  0
VERTEX
  8
Layer1
 10
26.4859
 20
51.6098
  0
VERTEX
  8
Layer1
 10
26.5326
 20
51.5948
  0
VERTEX
  8
Layer1
 10
26.5798
 20
51.5813
  0
VERTEX
  8
Layer1
 10
26.6275
 20
51.5694
  0
VERTEX
  8
Layer1
 10
26.6754
 20
51.559
  0
VERTEX
  8
Layer1
 10
26.7237
 20
51.5502
  0
VERTEX
  8
Layer1
 10
26.7723
 20
51.543
  0
VERTEX
  8
Layer1
 10
26.8211
 20
51.5374
  0
VERTEX
  8
Layer1
 10
26.87
 20
51.5334
  0
VERTEX
  8
Layer1
 10
26.919
 20
51.531
  0
VERTEX
  8
Layer1
 10
26.9681
 20
51.5302
  0
SEQEND
  0
LINE
  8
Layer1
  6
CONTINUOUS
 62
7
 10
26.9681
 20
58.0302
 11
26.9681
 21
53.0302
  0
LINE
  8
Layer1
  6
CONTINUOUS
 62
7
 10
26.9681
 20
53.0302
 11
27.4698
 21
53.0302
  0
LINE
  8
Layer1
  6
CONTINUOUS
 62
7
 10
49.4698
 20
53.0302
 11
49.9716
 21
53.0302
  0
LINE
  8
Layer1
  6
CONTINUOUS
 62
7
 10
49.9716
 20
58.0302
 11
49.9716
 21
53.0302
  0
POLYLINE
  8
Layer1
  6
CONTINUOUS
 62
7
 66
1
 10
0
 20
0
 30
0
  0
VERTEX
  8
Layer1
 10
51.4716
 20
53.0302
  0
VERTEX
  8
Layer1
 10
51.4708
 20
52.9811
  0
VERTEX
  8
Layer1
 10
51.4684
 20
52.9321
  0
VERTEX
  8
Layer1
 10
51.4644
 20
52.8831
  0
VERTEX
  8
Layer1
 10
51.4587
 20
52.8344
  0
VERTEX
  8
Layer1
 10
51.4515
 20
52.7858
  0
VERTEX
  8
Layer1
 10
51.4428
 20
52.7375
  0
VERTEX
  8
Layer1
 10
51.4324
 20
52.6896
  0
VERTEX
  8
Layer1
 10
51.4205
 20
52.6419
  0
VERTEX
  8
Layer1
 10
51.407
 20
52.5947
  0
VERTEX
  8
Layer1
 10
51.392
 20
52.548
  0
VERTEX
  8
Layer1
 10
51.3754
 20
52.5018
  0
VERTEX
  8
Layer1
 10
51.3574
 20
52.4561
  0
VERTEX
  8
Layer1
 10
51.3379
 20
52.4111
  0
VERTEX
  8
Layer1
 10
51.3169
 20
52.3667
  0
VERTEX
  8
Layer1
 10
51.2945
 20
52.3231
  0
VERTEX
  8
Layer1
 10
51.2706
 20
52.2802
  0
VERTEX
  8
Layer1
 10
51.2454
 20
52.2381
  0
VERTEX
  8
Layer1
 10
51.2188
 20
52.1968
  0
VERTEX
  8
Layer1
 10
51.1908
 20
52.1565
  0
VERTEX
  8
Layer1
 10
51.1616
 20
52.117
  0
VERTEX
  8
Layer1
 10
51.1311
 20
52.0786
  0
VERTEX
  8
Layer1
 10
51.0993
 20
52.0412
  0
VERTEX
  8
Layer1
 10
51.0664
 20
52.0048
  0
VERTEX
  8
Layer1
 10
51.0322
 20
51.9695
  0
VERTEX
  8
Layer1
 10
50.997
 20
51.9354
  0
VERTEX
  8
Layer1
 10
50.9606
 20
51.9024
  0
VERTEX
  8
Layer1
 10
50.9232
 20
51.8707
  0
VERTEX
  8
Layer1
 10
50.8847
 20
51.8401
  0
VERTEX
  8
Layer1
 10
50.8453
 20
51.8109
  0
VERTEX
  8
Layer1
 10
50.8049
 20
51.783
  0
VERTEX
  8
Layer1
 10
50.7637
 20
51.7564
  0
VERTEX
  8
Layer1
 10
50.7216
 20
51.7311
  0
VERTEX
  8
Layer1
 10
50.6787
 20
51.7073
  0
VERTEX
  8
Layer1
 10
50.635
 20
51.6849
  0
VERTEX
  8
Layer1
 10
50.5906
 20
51.6639
  0
VERTEX
  8
Layer1
 10
50.5456
 20
51.6444
  0
VERTEX
  8
Layer1
 10
50.5
 20
51.6263
  0
VERTEX
  8
Layer1
 10
50.4537
 20
51.6098
  0
VERTEX
  8
Layer1
 10
50.407
 20
51.5948
  0
VERTEX
  8
Layer1
 10
50.3598
 20
51.5813
  0
VERTEX
  8
Layer1
 10
50.3122
 20
51.5694
  0
VERTEX
  8
Layer1
 10
50.2642
 20
51.559
  0
VERTEX
  8
Layer1
 10
50.2159
 20
51.5502
  0
VERTEX
  8
Layer1
 10
50.1674
 20
51.543
  0
VERTEX
  8
Layer1
 10
50.1186
 20
51.5374
  0
VERTEX
  8
Layer1
 10
50.0697
 20
51.5334
  0
VERTEX
  8
Layer1
 10
50.0207
 20
51.531
  0
VERTEX
  8
Layer1
 10
49.9716
 20
51.5302
  0
SEQEND
  0
LINE
  8
Layer1
  6
CONTINUOUS
 62
1
 10
25.4681
 20
74.8252
 11
26.9681
 21
74.8252
  0
LINE
  8
Layer1
  6
CONTINUOUS
 62
1
 10
25.4681
 20
62.2231
 11
26.9681
 21
62.2231
  0
LINE
  8
Layer1
  6
CONTINUOUS
 62
1
 10
49.9716
 20
74.8252
 11
51.4716
 21
74.8252
  0
LINE
  8
Layer1
  6
CONTINUOUS
 62
1
 10
49.9716
 20
62.2231
 11
51.4716
 21
62.2231
  0
LINE
  8
Layer1
  6
CONTINUOUS
 62
5
 10
27.4698
 20
53.0302
 11
49.4698
 21
53.0302
  0
LINE
  8
Layer1
  6
CONTINUOUS
 62
1
 10
32.9698
 20
80.0302
 11
32.9698
 21
81.5302
  0
LINE
  8
Layer1
  6
CONTINUOUS
 62
1
 10
43.9698
 20
81.5302
 11
43.9698
 21
80.0302
  0
CIRCLE
  8
Layer1
  6
CONTINUOUS
 62
7
 10
31.1765
 20
59.2934
 40
1.25
  0
CIRCLE
  8
Layer1
  6
CONTINUOUS
 62
7
 10
45.7595
 20
73.7096
 40
1.25
  0
CIRCLE
  8
Layer1
  6
CONTINUOUS
 62
7
 10
45.7595
 20
73.7096
 40
1.5
  0
CIRCLE
  8
Layer1
  6
CONTINUOUS
 62
7
 10
31.1765
 20
59.2934
 40
1.5
  0
CIRCLE
  8
Layer1
  6
CONTINUOUS
 62
7
 10
31.4265
 20
73.4604
 40
1.5
  0
CIRCLE
  8
Layer1
  6
CONTINUOUS
 62
7
 10
45.5132
 20
59.5434
 40
1.5
  0
LINE
  8
Layer1
  6
CONTINUOUS
 62
7
 10
29.6765
 20
59.2934
 11
32.6765
 21
59.2934
  0
LINE
  8
Layer1
  6
CONTINUOUS
 62
7
 10
31.1765
 20
57.7934
 11
31.1765
 21
60.7934
  0
LINE
  8
Layer1
  6
CONTINUOUS
 62
7
 10
29.9265
 20
73.4604
 11
32.9265
 21
73.4604
  0
LINE
  8
Layer1
  6
CONTINUOUS
 62
7
 10
31.4265
 20
71.9604
 11
31.4265
 21
74.9604
  0
LINE
  8
Layer1
  6
CONTINUOUS
 62
7
 10
45.7595
 20
72.2096
 11
45.7595
 21
75.2096
  0
LINE
  8
Layer1
  6
CONTINUOUS
 62
7
 10
44.2595
 20
73.7096
 11
47.2595
 21
73.7096
  0
LINE
  8
Layer1
  6
CONTINUOUS
 62
7
 10
45.5132
 20
58.0434
 11
45.5132
 21
61.0434
  0
LINE
  8
Layer1
  6
CONTINUOUS
 62
7
 10
44.0132
 20
59.5434
 11
47.0132
 21
59.5434
  0
LINE
  8
Layer1
  6
CONTINUOUS
 62
7
 10
29.9265
 20
59.2934
 11
29.9265
 21
73.4604
  0
LINE
  8
Layer1
  6
CONTINUOUS
 62
7
 10
31.1765
 20
58.0434
 11
45.5132
 21
58.0434
  0
LINE
  8
Layer1
  6
CONTINUOUS
 62
7
 10
47.0095
 20
73.7096
 11
47.0095
 21
59.5999
  0
LINE
  8
Layer1
  6
CONTINUOUS
 62
7
 10
45.7595
 20
74.9596
 11
31.4388
 21
74.9596
  0
CIRCLE
  8
Layer1
  6
CONTINUOUS
 62
7
 10
132.418
 20
22.8151
 40
1.5
  0
POLYLINE
  8
Layer1
  6
CONTINUOUS
 62
5
 66
1
 10
0
 20
0
 30
0
 70
1
  0
VERTEX
  8
Layer1
 10
82.2602
 20
15.0586
  0
VERTEX
  8
Layer1
 10
82.2602
 20
16.5586
  0
VERTEX
  8
Layer1
 10
85.2602
 20
16.5586
  0
VERTEX
  8
Layer1
 10
85.2602
 20
15.0586
  0
SEQEND
  0
CIRCLE
  8
Layer1
  6
CONTINUOUS
 62
7
 10
97.8681
 20
28.0603
 40
1.5
  0
CIRCLE
  8
Layer1
  6
CONTINUOUS
 62
7
 10
118.468
 20
28.0603
 40
1.5
  0
POLYLINE
  8
Layer1
  6
CONTINUOUS
 62
5
 66
1
 10
0
 20
0
 30
0
 70
1
  0
VERTEX
  8
Layer1
 10
82.2602
 20
39.5621
  0
VERTEX
  8
Layer1
 10
82.2602
 20
41.0621
  0
VERTEX
  8
Layer1
 10
85.2602
 20
41.0621
  0
VERTEX
  8
Layer1
 10
85.2602
 20
39.5621
  0
SEQEND
  0
POLYLINE
  8
Layer1
  6
CONTINUOUS
 62
5
 66
1
 10
0
 20
0
 30
0
 70
1
  0
VERTEX
  8
Layer1
 10
131.106
 20
39.5621
  0
VERTEX
  8
Layer1
 10
131.106
 20
41.0621
  0
VERTEX
  8
Layer1
 10
134.106
 20
41.0621
  0
VERTEX
  8
Layer1
 10
134.106
 20
39.5621
  0
SEQEND
  0
POLYLINE
  8
Layer1
  6
CONTINUOUS
 62
5
 66
1
 10
0
 20
0
 30
0
 70
1
  0
VERTEX
  8
Layer1
 10
131.106
 20
15.0586
  0
VERTEX
  8
Layer1
 10
131.106
 20
16.5586
  0
VERTEX
  8
Layer1
 10
134.106
 20
16.5586
  0
VERTEX
  8
Layer1
 10
134.106
 20
15.0586
  0
SEQEND
  0
POLYLINE
  8
Layer1
  6
CONTINUOUS
 62
7
 66
1
 10
0
 20
0
 30
0
 70
1
  0
VERTEX
  8
Layer1
 10
128.767
 20
15.0586
  0
VERTEX
  8
Layer1
 10
128.767
 20
16.5586
  0
VERTEX
  8
Layer1
 10
87.5673
 20
16.5586
  0
VERTEX
  8
Layer1
 10
87.5673
 20
15.0586
  0
SEQEND
  0
POLYLINE
  8
Layer1
  6
CONTINUOUS
 62
7
 66
1
 10
0
 20
0
 30
0
 70
1
  0
VERTEX
  8
Layer1
 10
128.767
 20
39.5621
  0
VERTEX
  8
Layer1
 10
128.767
 20
41.0621
  0
VERTEX
  8
Layer1
 10
87.5673
 20
41.0621
  0
VERTEX
  8
Layer1
 10
87.5673
 20
39.5621
  0
SEQEND
  0
POLYLINE
  8
Layer1
  6
CONTINUOUS
 62
7
 66
1
 10
0
 20
0
 30
0
 70
1
  0
VERTEX
  8
Layer1
 10
136.917
 20
17.0603
  0
VERTEX
  8
Layer1
 10
136.917
 20
39.0618
  0
VERTEX
  8
Layer1
 10
129.371
 20
39.0618
  0
VERTEX
  8
Layer1
 10
129.371
 20
17.0603
  0
SEQEND
  0
POLYLINE
  8
Layer1
  6
CONTINUOUS
 62
7
 66
1
 10
0
 20
0
 30
0
 70
1
  0
VERTEX
  8
Layer1
 10
86.8852
 20
17.0603
  0
VERTEX
  8
Layer1
 10
86.8852
 20
39.0603
  0
VERTEX
  8
Layer1
 10
79.4189
 20
39.0603
  0
VERTEX
  8
Layer1
 10
79.4189
 20
17.0603
  0
SEQEND
  0
ARC
  8
Layer1
  6
CONTINUOUS
 62
7
 10
80.9189
 20
39.5621
 40
1.5
 50
90
 51
180
  0
ARC
  8
Layer1
  6
CONTINUOUS
 62
7
 10
80.9189
 20
16.5586
 40
1.5
 50
180
 51
270
  0
ARC
  8
Layer1
  6
CONTINUOUS
 62
7
 10
135.417
 20
16.5586
 40
1.5
 50
270
 51
0
  0
ARC
  8
Layer1
  6
CONTINUOUS
 62
7
 10
135.417
 20
39.5621
 40
1.5
 50
360
 51
90
  0
LINE
  8
Layer1
  6
CONTINUOUS
 62
1
 10
79.4189
 20
28.0603
 11
136.917
 21
28.0603
  0
LINE
  8
Layer1
  6
CONTINUOUS
 62
7
 10
87.5673
 20
15.0586
 11
80.9189
 21
15.0586
  0
LINE
  8
Layer1
  6
CONTINUOUS
 62
7
 10
87.5673
 20
16.5586
 11
80.9189
 21
16.5586
  0
LINE
  8
Layer1
  6
CONTINUOUS
 62
7
 10
80.9173
 20
39.0603
 11
80.9173
 21
39.5621
  0
LINE
  8
Layer1
  6
CONTINUOUS
 62
7
 10
80.9189
 20
39.5621
 11
87.5673
 21
39.5621
  0
LINE
  8
Layer1
  6
CONTINUOUS
 62
7
 10
80.9189
 20
41.0621
 11
87.5291
 21
41.0621
  0
LINE
  8
Layer1
  6
CONTINUOUS
 62
5
 10
80.9173
 20
17.0603
 11
80.9173
 21
39.0603
  0
LINE
  8
Layer1
  6
CONTINUOUS
 62
7
 10
80.9173
 20
17.0603
 11
80.9173
 21
16.5586
  0
LINE
  8
Layer1
  6
CONTINUOUS
 62
7
 10
79.4189
 20
16.5586
 11
79.4189
 21
17.0603
  0
LINE
  8
Layer1
  6
CONTINUOUS
 62
7
 10
79.4189
 20
39.0603
 11
79.4189
 21
39.5621
  0
LINE
  8
Layer1
  6
CONTINUOUS
 62
7
 10
128.767
 20
15.0586
 11
135.417
 21
15.0586
  0
LINE
  8
Layer1
  6
CONTINUOUS
 62
7
 10
128.767
 20
16.5586
 11
135.417
 21
16.5586
  0
LINE
  8
Layer1
  6
CONTINUOUS
 62
7
 10
135.417
 20
16.5586
 11
135.417
 21
17.0603
  0
LINE
  8
Layer1
  6
CONTINUOUS
 62
7
 10
135.417
 20
39.0603
 11
135.417
 21
39.5621
  0
LINE
  8
Layer1
  6
CONTINUOUS
 62
7
 10
128.767
 20
39.5621
 11
135.417
 21
39.5621
  0
LINE
  8
Layer1
  6
CONTINUOUS
 62
7
 10
128.767
 20
41.0621
 11
135.417
 21
41.0621
  0
LINE
  8
Layer1
  6
CONTINUOUS
 62
5
 10
135.417
 20
17.0603
 11
135.417
 21
39.3112
  0
LINE
  8
Layer1
  6
CONTINUOUS
 62
1
 10
132.606
 20
15.0586
 11
132.606
 21
16.5586
  0
LINE
  8
Layer1
  6
CONTINUOUS
 62
1
 10
132.606
 20
39.5621
 11
132.606
 21
41.0621
  0
LINE
  8
Layer1
  6
CONTINUOUS
 62
1
 10
83.7602
 20
39.5621
 11
83.7602
 21
41.0621
  0
LINE
  8
Layer1
  6
CONTINUOUS
 62
1
 10
83.7602
 20
15.0586
 11
83.7602
 21
16.5586
  0
LINE
  8
Layer1
  6
CONTINUOUS
 62
7
 10
136.917
 20
16.5586
 11
136.917
 21
17.1389
  0
LINE
  8
Layer1
  6
CONTINUOUS
 62
7
 10
136.917
 20
39.5621
 11
136.917
 21
38.9818
  0
CIRCLE
  8
Layer1
  6
CONTINUOUS
 62
7
 10
83.9181
 20
22.8151
 40
1.5
  0
CIRCLE
  8
Layer1
  6
CONTINUOUS
 62
7
 10
83.9181
 20
33.3056
 40
1.5
  0
CIRCLE
  8
Layer1
  6
CONTINUOUS
 62
7
 10
132.418
 20
33.3056
 40
1.5
  0
LINE
  8
Layer1
  6
CONTINUOUS
 62
1
 10
83.9181
 20
21.3151
 11
83.9181
 21
24.3151
  0
LINE
  8
Layer1
  6
CONTINUOUS
 62
1
 10
82.4181
 20
22.8151
 11
85.4181
 21
22.8151
  0
LINE
  8
Layer1
  6
CONTINUOUS
 62
1
 10
83.9181
 20
31.8056
 11
83.9181
 21
34.8056
  0
LINE
  8
Layer1
  6
CONTINUOUS
 62
1
 10
82.4181
 20
33.3056
 11
85.4181
 21
33.3056
  0
LINE
  8
Layer1
  6
CONTINUOUS
 62
1
 10
132.418
 20
21.3151
 11
132.418
 21
24.3151
  0
LINE
  8
Layer1
  6
CONTINUOUS
 62
1
 10
130.918
 20
22.8151
 11
133.918
 21
22.8151
  0
LINE
  8
Layer1
  6
CONTINUOUS
 62
1
 10
132.418
 20
31.8056
 11
132.418
 21
34.8056
  0
LINE
  8
Layer1
  6
CONTINUOUS
 62
1
 10
130.918
 20
33.3056
 11
133.918
 21
33.3056
  0
LINE
  8
Layer1
  6
CONTINUOUS
 62
1
 10
118.468
 20
26.5603
 11
118.468
 21
29.5603
  0
LINE
  8
Layer1
  6
CONTINUOUS
 62
1
 10
97.8681
 20
26.5603
 11
97.8681
 21
29.5603
  0
POLYLINE
  8
Layer1
  6
CONTINUOUS
 62
7
 66
1
 10
0
 20
0
 30
0
 70
1
  0
VERTEX
  8
Layer1
 10
84.3402
 20
102.985
  0
VERTEX
  8
Layer1
 10
84.3402
 20
100.985
  0
VERTEX
  8
Layer1
 10
85.8444
 20
100.985
  0
VERTEX
  8
Layer1
 10
85.8444
 20
102.985
  0
VERTEX
  8
Layer1
 10
85.8444
 20
102.985
  0
SEQEND
  0
POLYLINE
  8
Layer1
  6
CONTINUOUS
 62
7
 66
1
 10
0
 20
0
 30
0
 70
1
  0
VERTEX
  8
Layer1
 10
84.3444
 20
116.97
  0
VERTEX
  8
Layer1
 10
84.3444
 20
114.97
  0
VERTEX
  8
Layer1
 10
85.8444
 20
114.97
  0
VERTEX
  8
Layer1
 10
85.8444
 20
116.97
  0
VERTEX
  8
Layer1
 10
85.8444
 20
116.97
  0
SEQEND
  0
POLYLINE
  8
Layer1
  6
CONTINUOUS
 62
7
 66
1
 10
0
 20
0
 30
0
 70
1
  0
VERTEX
  8
Layer1
 10
84.3444
 20
113.972
  0
VERTEX
  8
Layer1
 10
84.3444
 20
103.972
  0
VERTEX
  8
Layer1
 10
85.8444
 20
103.972
  0
VERTEX
  8
Layer1
 10
85.8444
 20
113.972
  0
VERTEX
  8
Layer1
 10
85.8444
 20
113.972
  0
SEQEND
  0
POLYLINE
  8
Layer1
  6
CONTINUOUS
 62
7
 66
1
 10
0
 20
0
 30
0
 70
1
  0
VERTEX
  8
Layer1
 10
131.844
 20
112.972
  0
VERTEX
  8
Layer1
 10
131.844
 20
104.972
  0
VERTEX
  8
Layer1
 10
133.344
 20
104.972
  0
VERTEX
  8
Layer1
 10
133.344
 20
112.972
  0
VERTEX
  8
Layer1
 10
133.344
 20
112.972
  0
SEQEND
  0
LINE
  8
Layer1
  6
CONTINUOUS
 62
5
 10
84.3444
 20
108.987
 11
133.344
 21
108.987
  0
LINE
  8
Layer1
  6
CONTINUOUS
 62
7
 10
131.844
 20
120.987
 11
85.8444
 21
120.987
  0
LINE
  8
Layer1
  6
CONTINUOUS
 62
7
 10
85.8444
 20
97.0211
 11
131.844
 21
97.0211
  0
LINE
  8
Layer1
  6
CONTINUOUS
 62
7
 10
84.3444
 20
120.987
 11
84.3444
 21
97.0211
  0
LINE
  8
Layer1
  6
CONTINUOUS
 62
7
 10
84.369
 20
110.073
 11
85.8444
 21
110.073
  0
LINE
  8
Layer1
  6
CONTINUOUS
 62
7
 10
84.369
 20
108.073
 11
85.8444
 21
108.073
  0
LINE
  8
Layer1
  6
CONTINUOUS
 62
5
 10
84.369
 20
115.97
 11
85.869
 21
115.97
  0
LINE
  8
Layer1
  6
CONTINUOUS
 62
5
 10
84.369
 20
101.985
 11
85.8444
 21
101.985
  0
LINE
  8
Layer1
  6
CONTINUOUS
 62
7
 10
84.3444
 20
97.0211
 11
85.8444
 21
97.0211
  0
LINE
  8
Layer1
  6
CONTINUOUS
 62
7
 10
85.8444
 20
97.0211
 11
85.8444
 21
120.987
  0
LINE
  8
Layer1
  6
CONTINUOUS
 62
7
 10
85.8444
 20
120.987
 11
84.3444
 21
120.987
  0
LINE
  8
Layer1
  6
CONTINUOUS
 62
7
 10
131.844
 20
120.987
 11
131.844
 21
97.0211
  0
LINE
  8
Layer1
  6
CONTINUOUS
 62
7
 10
131.844
 20
97.0211
 11
133.344
 21
97.0211
  0
LINE
  8
Layer1
  6
CONTINUOUS
 62
7
 10
133.344
 20
97.0211
 11
133.344
 21
120.987
  0
LINE
  8
Layer1
  6
CONTINUOUS
 62
7
 10
133.344
 20
120.987
 11
131.844
 21
120.987
  0
LINE
  8
Layer1
  6
CONTINUOUS
 62
7
 10
127.344
 20
122.489
 11
127.344
 21
120.987
  0
LINE
  8
Layer1
  6
CONTINUOUS
 62
7
 10
90.3444
 20
120.987
 11
90.3444
 21
122.489
  0
LINE
  8
Layer1
  6
CONTINUOUS
 62
7
 10
90.3444
 20
122.489
 11
127.344
 21
122.489
  0
LINE
  8
Layer1
  6
CONTINUOUS
 62
7
 10
90.3444
 20
97.0211
 11
90.3444
 21
95.487
  0
LINE
  8
Layer1
  6
CONTINUOUS
 62
7
 10
90.3444
 20
95.487
 11
127.344
 21
95.487
  0
LINE
  8
Layer1
  6
CONTINUOUS
 62
7
 10
127.344
 20
95.487
 11
127.344
 21
97.0211
  0
LINE
  8
Layer1
  6
CONTINUOUS
 62
5
 10
108.844
 20
122.489
 11
108.844
 21
95.487
  0
CIRCLE
  8
Layer1
  6
CONTINUOUS
 62
7
 10
108.844
 20
108.987
 40
5
  0
CIRCLE
  8
Layer1
  6
CONTINUOUS
 62
7
 10
108.847
 20
116.019
 40
1.5
  0
CIRCLE
  8
Layer1
  6
CONTINUOUS
 62
7
 10
100.37
 20
108.988
 40
1.5
  0
CIRCLE
  8
Layer1
  6
CONTINUOUS
 62
7
 10
117.371
 20
108.988
 40
1.5
  0
CIRCLE
  8
Layer1
  6
CONTINUOUS
 62
7
 10
108.847
 20
101.942
 40
1.5
  0
CIRCLE
  8
Layer1
  6
CONTINUOUS
 62
7
 10
102.096
 20
102.238
 40
1.5
  0
CIRCLE
  8
Layer1
  6
CONTINUOUS
 62
7
 10
115.565
 20
102.254
 40
1.5
  0
CIRCLE
  8
Layer1
  6
CONTINUOUS
 62
7
 10
115.565
 20
115.707
 40
1.5
  0
CIRCLE
  8
Layer1
  6
CONTINUOUS
 62
7
 10
102.112
 20
115.722
 40
1.5
  0
LINE
  8
Layer1
  6
CONTINUOUS
 62
5
 10
101.036
 20
101.177
 11
116.626
 21
116.767
  0
LINE
  8
Layer1
  6
CONTINUOUS
 62
5
 10
101.052
 20
116.783
 11
116.626
 21
101.193
  0
LINE
  8
Layer1
  6
CONTINUOUS
 62
7
 10
26.4959
 20
131.29
 11
26.4959
 21
168.29
  0
LINE
  8
Layer1
  6
CONTINUOUS
 62
7
 10
31.4959
 20
173.29
 11
45.4959
 21
173.29
  0
LINE
  8
Layer1
  6
CONTINUOUS
 62
7
 10
50.4959
 20
168.29
 11
50.4937
 21
131.29
  0
LINE
  8
Layer1
  6
CONTINUOUS
 62
7
 10
50.4959
 20
131.29
 11
26.4959
 21
131.29
  0
LINE
  8
Layer1
  6
CONTINUOUS
 62
7
 10
51.9959
 20
132.414
 11
51.9959
 21
135.803
  0
LINE
  8
Layer1
  6
CONTINUOUS
 62
7
 10
51.9959
 20
135.803
 11
50.4937
 21
135.803
  0
LINE
  8
Layer1
  6
CONTINUOUS
 62
7
 10
50.4937
 20
131.29
 11
50.8719
 21
131.29
  0
ARC
  8
Layer1
  6
CONTINUOUS
 62
7
 10
50.8719
 20
132.414
 40
1.1241
 50
270
 51
0
  0
LINE
  8
Layer1
  6
CONTINUOUS
 62
7
 10
24.9937
 20
132.414
 11
24.9937
 21
135.803
  0
LINE
  8
Layer1
  6
CONTINUOUS
 62
7
 10
31.4959
 20
173.29
 11
26.4959
 21
168.29
  0
LINE
  8
Layer1
  6
CONTINUOUS
 62
7
 10
45.4959
 20
173.29
 11
50.4959
 21
168.29
  0
LINE
  8
Layer1
  6
CONTINUOUS
 62
5
 10
38.4959
 20
173.29
 11
38.4959
 21
131.29
  0
CIRCLE
  8
Layer1
  6
CONTINUOUS
 62
1
 10
38.4959
 20
161.29
 40
4
  0
CIRCLE
  8
Layer1
  6
CONTINUOUS
 62
7
 10
38.4959
 20
161.29
 40
5
  0
LINE
  8
Layer1
  6
CONTINUOUS
 62
5
 10
50.4959
 20
161.29
 11
26.4959
 21
161.29
  0
CIRCLE
  8
Layer1
  6
CONTINUOUS
 62
7
 10
38.5107
 20
168.287
 40
1
  0
CIRCLE
  8
Layer1
  6
CONTINUOUS
 62
7
 10
45.5152
 20
161.237
 40
1
  0
CIRCLE
  8
Layer1
  6
CONTINUOUS
 62
7
 10
38.5107
 20
154.302
 40
1
  0
CIRCLE
  8
Layer1
  6
CONTINUOUS
 62
7
 10
31.4544
 20
161.29
 40
1
  0
LINE
  8
Layer1
  6
CONTINUOUS
 62
7
 10
24.9937
 20
135.803
 11
26.4959
 21
135.803
  0
LINE
  8
Layer1
  6
CONTINUOUS
 62
7
 10
26.4959
 20
131.29
 11
26.1178
 21
131.29
  0
ARC
  8
Layer1
  6
CONTINUOUS
 62
7
 10
26.1178
 20
132.414
 40
1.1241
 50
180
 51
270
  0
POLYLINE
  8
Layer1
  6
CONTINUOUS
 62
7
 66
1
 10
0
 20
0
 30
0
 70
1
  0
VERTEX
  8
Layer1
 10
130.288
 20
165.29
  0
VERTEX
  8
Layer1
 10
130.288
 20
157.29
  0
VERTEX
  8
Layer1
 10
131.788
 20
157.29
  0
VERTEX
  8
Layer1
 10
131.788
 20
165.29
  0
VERTEX
  8
Layer1
 10
131.788
 20
165.29
  0
SEQEND
  0
POLYLINE
  8
Layer1
  6
CONTINUOUS
 62
7
 66
1
 10
0
 20
0
 30
0
 70
1
  0
VERTEX
  8
Layer1
 10
82.7879
 20
155.302
  0
VERTEX
  8
Layer1
 10
82.7879
 20
153.302
  0
VERTEX
  8
Layer1
 10
84.2879
 20
153.302
  0
VERTEX
  8
Layer1
 10
84.2879
 20
155.302
  0
VERTEX
  8
Layer1
 10
84.2879
 20
155.302
  0
SEQEND
  0
POLYLINE
  8
Layer1
  6
CONTINUOUS
 62
7
 66
1
 10
0
 20
0
 30
0
 70
1
  0
VERTEX
  8
Layer1
 10
82.7879
 20
169.288
  0
VERTEX
  8
Layer1
 10
82.7879
 20
167.288
  0
VERTEX
  8
Layer1
 10
84.2879
 20
167.288
  0
VERTEX
  8
Layer1
 10
84.2879
 20
169.288
  0
VERTEX
  8
Layer1
 10
84.2879
 20
169.288
  0
SEQEND
  0
POLYLINE
  8
Layer1
  6
CONTINUOUS
 62
7
 66
1
 10
0
 20
0
 30
0
 70
1
  0
VERTEX
  8
Layer1
 10
82.7879
 20
166.29
  0
VERTEX
  8
Layer1
 10
82.7879
 20
156.29
  0
VERTEX
  8
Layer1
 10
84.2879
 20
156.29
  0
VERTEX
  8
Layer1
 10
84.2879
 20
166.29
  0
VERTEX
  8
Layer1
 10
84.2879
 20
166.29
  0
SEQEND
  0
LINE
  8
Layer1
  6
CONTINUOUS
 62
7
 10
82.7879
 20
132.79
 11
82.7879
 21
173.29
  0
LINE
  8
Layer1
  6
CONTINUOUS
 62
7
 10
82.7879
 20
173.29
 11
84.2879
 21
173.29
  0
LINE
  8
Layer1
  6
CONTINUOUS
 62
7
 10
84.2879
 20
173.29
 11
84.2879
 21
132.79
  0
LINE
  8
Layer1
  6
CONTINUOUS
 62
7
 10
130.275
 20
132.79
 11
130.288
 21
173.29
  0
LINE
  8
Layer1
  6
CONTINUOUS
 62
7
 10
84.2879
 20
132.79
 11
88.7879
 21
132.788
  0
LINE
  8
Layer1
  6
CONTINUOUS
 62
7
 10
130.288
 20
131.29
 11
84.2818
 21
131.29
  0
POLYLINE
  8
Layer1
  6
CONTINUOUS
 62
7
 66
1
 10
0
 20
0
 30
0
  0
VERTEX
  8
Layer1
 10
82.7879
 20
132.79
  0
VERTEX
  8
Layer1
 10
82.7887
 20
132.741
  0
VERTEX
  8
Layer1
 10
82.7911
 20
132.692
  0
VERTEX
  8
Layer1
 10
82.7951
 20
132.643
  0
VERTEX
  8
Layer1
 10
82.8008
 20
132.594
  0
VERTEX
  8
Layer1
 10
82.808
 20
132.546
  0
VERTEX
  8
Layer1
 10
82.8167
 20
132.497
  0
VERTEX
  8
Layer1
 10
82.8271
 20
132.449
  0
VERTEX
  8
Layer1
 10
82.839
 20
132.402
  0
VERTEX
  8
Layer1
 10
82.8525
 20
132.354
  0
VERTEX
  8
Layer1
 10
82.8675
 20
132.308
  0
VERTEX
  8
Layer1
 10
82.8841
 20
132.261
  0
VERTEX
  8
Layer1
 10
82.9021
 20
132.216
  0
VERTEX
  8
Layer1
 10
82.9216
 20
132.171
  0
VERTEX
  8
Layer1
 10
82.9426
 20
132.126
  0
VERTEX
  8
Layer1
 10
82.965
 20
132.083
  0
VERTEX
  8
Layer1
 10
82.9889
 20
132.04
  0
VERTEX
  8
Layer1
 10
83.0141
 20
131.998
  0
VERTEX
  8
Layer1
 10
83.0407
 20
131.957
  0
VERTEX
  8
Layer1
 10
83.0687
 20
131.916
  0
VERTEX
  8
Layer1
 10
83.0979
 20
131.877
  0
VERTEX
  8
Layer1
 10
83.1284
 20
131.838
  0
VERTEX
  8
Layer1
 10
83.1602
 20
131.801
  0
VERTEX
  8
Layer1
 10
83.1931
 20
131.764
  0
VERTEX
  8
Layer1
 10
83.2273
 20
131.729
  0
VERTEX
  8
Layer1
 10
83.2625
 20
131.695
  0
VERTEX
  8
Layer1
 10
83.2989
 20
131.662
  0
VERTEX
  8
Layer1
 10
83.3363
 20
131.63
  0
VERTEX
  8
Layer1
 10
83.3748
 20
131.6
  0
VERTEX
  8
Layer1
 10
83.4142
 20
131.571
  0
VERTEX
  8
Layer1
 10
83.4546
 20
131.543
  0
VERTEX
  8
Layer1
 10
83.4958
 20
131.516
  0
VERTEX
  8
Layer1
 10
83.5379
 20
131.491
  0
VERTEX
  8
Layer1
 10
83.5808
 20
131.467
  0
VERTEX
  8
Layer1
 10
83.6245
 20
131.445
  0
VERTEX
  8
Layer1
 10
83.6689
 20
131.424
  0
VERTEX
  8
Layer1
 10
83.7139
 20
131.404
  0
VERTEX
  8
Layer1
 10
83.7596
 20
131.386
  0
VERTEX
  8
Layer1
 10
83.8058
 20
131.369
  0
VERTEX
  8
Layer1
 10
83.8525
 20
131.354
  0
VERTEX
  8
Layer1
 10
83.8997
 20
131.341
  0
VERTEX
  8
Layer1
 10
83.9473
 20
131.329
  0
VERTEX
  8
Layer1
 10
83.9953
 20
131.319
  0
VERTEX
  8
Layer1
 10
84.0436
 20
131.31
  0
VERTEX
  8
Layer1
 10
84.0921
 20
131.303
  0
VERTEX
  8
Layer1
 10
84.1409
 20
131.297
  0
VERTEX
  8
Layer1
 10
84.1898
 20
131.293
  0
VERTEX
  8
Layer1
 10
84.2388
 20
131.291
  0
VERTEX
  8
Layer1
 10
84.2879
 20
131.29
  0
SEQEND
  0
LINE
  8
Layer1
  6
CONTINUOUS
 62
7
 10
130.288
 20
173.29
 11
131.788
 21
173.29
  0
LINE
  8
Layer1
  6
CONTINUOUS
 62
7
 10
131.788
 20
173.29
 11
131.788
 21
132.79
  0
POLYLINE
  8
Layer1
  6
CONTINUOUS
 62
7
 66
1
 10
0
 20
0
 30
0
  0
VERTEX
  8
Layer1
 10
130.288
 20
131.29
  0
VERTEX
  8
Layer1
 10
130.337
 20
131.291
  0
VERTEX
  8
Layer1
 10
130.386
 20
131.293
  0
VERTEX
  8
Layer1
 10
130.435
 20
131.297
  0
VERTEX
  8
Layer1
 10
130.484
 20
131.303
  0
VERTEX
  8
Layer1
 10
130.532
 20
131.31
  0
VERTEX
  8
Layer1
 10
130.581
 20
131.319
  0
VERTEX
  8
Layer1
 10
130.629
 20
131.329
  0
VERTEX
  8
Layer1
 10
130.676
 20
131.341
  0
VERTEX
  8
Layer1
 10
130.723
 20
131.354
  0
VERTEX
  8
Layer1
 10
130.77
 20
131.369
  0
VERTEX
  8
Layer1
 10
130.816
 20
131.386
  0
VERTEX
  8
Layer1
 10
130.862
 20
131.404
  0
VERTEX
  8
Layer1
 10
130.907
 20
131.424
  0
VERTEX
  8
Layer1
 10
130.951
 20
131.445
  0
VERTEX
  8
Layer1
 10
130.995
 20
131.467
  0
VERTEX
  8
Layer1
 10
131.038
 20
131.491
  0
VERTEX
  8
Layer1
 10
131.08
 20
131.516
  0
VERTEX
  8
Layer1
 10
131.121
 20
131.543
  0
VERTEX
  8
Layer1
 10
131.162
 20
131.571
  0
VERTEX
  8
Layer1
 10
131.201
 20
131.6
  0
VERTEX
  8
Layer1
 10
131.24
 20
131.63
  0
VERTEX
  8
Layer1
 10
131.277
 20
131.662
  0
VERTEX
  8
Layer1
 10
131.313
 20
131.695
  0
VERTEX
  8
Layer1
 10
131.349
 20
131.729
  0
VERTEX
  8
Layer1
 10
131.383
 20
131.764
  0
VERTEX
  8
Layer1
 10
131.416
 20
131.801
  0
VERTEX
  8
Layer1
 10
131.447
 20
131.838
  0
VERTEX
  8
Layer1
 10
131.478
 20
131.877
  0
VERTEX
  8
Layer1
 10
131.507
 20
131.916
  0
VERTEX
  8
Layer1
 10
131.535
 20
131.957
  0
VERTEX
  8
Layer1
 10
131.562
 20
131.998
  0
VERTEX
  8
Layer1
 10
131.587
 20
132.04
  0
VERTEX
  8
Layer1
 10
131.611
 20
132.083
  0
VERTEX
  8
Layer1
 10
131.633
 20
132.126
  0
VERTEX
  8
Layer1
 10
131.654
 20
132.171
  0
VERTEX
  8
Layer1
 10
131.674
 20
132.216
  0
VERTEX
  8
Layer1
 10
131.692
 20
132.261
  0
VERTEX
  8
Layer1
 10
131.708
 20
132.308
  0
VERTEX
  8
Layer1
 10
131.723
 20
132.354
  0
VERTEX
  8
Layer1
 10
131.737
 20
132.402
  0
VERTEX
  8
Layer1
 10
131.749
 20
132.449
  0
VERTEX
  8
Layer1
 10
131.759
 20
132.497
  0
VERTEX
  8
Layer1
 10
131.768
 20
132.546
  0
VERTEX
  8
Layer1
 10
131.775
 20
132.594
  0
VERTEX
  8
Layer1
 10
131.781
 20
132.643
  0
VERTEX
  8
Layer1
 10
131.785
 20
132.692
  0
VERTEX
  8
Layer1
 10
131.787
 20
132.741
  0
VERTEX
  8
Layer1
 10
131.788
 20
132.79
  0
SEQEND
  0
LINE
  8
Layer1
  6
CONTINUOUS
 62
7
 10
82.7879
 20
162.39
 11
84.2879
 21
162.39
  0
LINE
  8
Layer1
  6
CONTINUOUS
 62
7
 10
82.7879
 20
160.39
 11
84.2879
 21
160.39
  0
LINE
  8
Layer1
  6
CONTINUOUS
 62
5
 10
82.7879
 20
168.288
 11
84.2879
 21
168.288
  0
LINE
  8
Layer1
  6
CONTINUOUS
 62
5
 10
82.7879
 20
154.302
 11
84.2879
 21
154.302
  0
LINE
  8
Layer1
  6
CONTINUOUS
 62
5
 10
82.7879
 20
161.29
 11
84.2879
 21
161.29
  0
LINE
  8
Layer1
  6
CONTINUOUS
 62
5
 10
130.288
 20
161.29
 11
131.788
 21
161.29
  0
LINE
  8
Layer1
  6
CONTINUOUS
 62
5
 10
88.7879
 20
135.79
 11
88.7879
 21
132.79
  0
LINE
  8
Layer1
  6
CONTINUOUS
 62
7
 10
125.788
 20
131.289
 11
125.788
 21
135.79
  0
LINE
  8
Layer1
  6
CONTINUOUS
 62
7
 10
88.7879
 20
135.79
 11
88.7879
 21
131.322
  0
LINE
  8
Layer1
  6
CONTINUOUS
 62
7
 10
125.788
 20
135.79
 11
88.7879
 21
135.79
  0
LINE
  8
Layer1
  6
CONTINUOUS
 62
7
 10
125.788
 20
132.79
 11
130.275
 21
132.79
  0
LINE
  8
Layer1
  6
CONTINUOUS
 62
5
 10
107.285
 20
131.29
 11
107.288
 21
135.79
  0
LINE
  8
Layer1
  6
CONTINUOUS
 62
5
 10
114.008
 20
131.29
 11
114.008
 21
135.79
  0
LINE
  8
Layer1
  6
CONTINUOUS
 62
5
 10
100.556
 20
131.29
 11
100.556
 21
135.79
  0
LINE
  8
Layer1
  6
CONTINUOUS
 62
5
 10
98.8132
 20
131.29
 11
98.8132
 21
135.79
  0
LINE
  8
Layer1
  6
CONTINUOUS
 62
5
 10
115.815
 20
131.29
 11
115.815
 21
135.79
  0
ENDSEC
  0
EOF
