  0
SECTION
  2
HEADER
  9
$EXTMIN
 10
0
 20
0
  9
$EXTMAX
 10
297
 20
210
  9
$LTSCALE
 40
1
  9
$LIMMIN
 10
0
 20
0
  9
$LIMMAX
 10
297
 20
210
  9
$DIMSCALE
 40
1
  0
ENDSEC
  0
SECTION
  2
TABLES
  0
TABLE
  2
LTYPE
 70
9
  0
LTYPE
  2
CONTINUOUS
 70
64
  3
----------
 72
65
 73
0
 40
0
  0
LTYPE
  2
DASHED1
 70
64
  3
--  --  --  --  --  --  --  --  
 72
65
 73
2
 40
2.5
 49
1.25
 49
-1.25
  0
LTYPE
  2
DASHED2
 70
64
  3
----    ----    ----    ----    
 72
65
 73
2
 40
5
 49
2.5
 49
-2.5
  0
LTYPE
  2
DASHED3
 70
64
  3
------  ------  ------  ------  
 72
65
 73
2
 40
5
 49
3.75
 49
-1.25
  0
LTYPE
  2
CENTER1
 70
64
  3
----- - ----- - ----- - ----- - 
 72
65
 73
4
 40
7.5
 49
3.75
 49
-1.25
 49
1.25
 49
-1.25
  0
LTYPE
  2
CENTER2
 70
64
  3
----------  --  ----------  --  
 72
65
 73
4
 40
13.75
 49
6.25
 49
-2.5
 49
2.5
 49
-2.5
  0
LTYPE
  2
PHANTOM1
 70
64
  3
--- - - --- - - --- - - --- - - 
 72
65
 73
6
 40
9.5
 49
3.25
 49
-1.25
 49
1.25
 49
-1.25
 49
1.25
 49
-1.25
  0
LTYPE
  2
PHANTOM2
 70
64
  3
--------  -  -  --------  -  -  
 72
65
 73
6
 40
18
 49
8
 49
-2.5
 49
1.25
 49
-2.5
 49
1.25
 49
-2.5
  0
LTYPE
  2
DOT
 70
64
  3
-   -   -   -   -   -   -   -   
 72
65
 73
2
 40
2.5
 49
0.625
 49
-1.875
  0
LTYPE
  2
HOJO
 70
64
  3
-   -   -   -   -   -   -   -   
 72
65
 73
2
 40
2.5
 49
0.625
 49
-1.875
  0
ENDTAB
  0
TABLE
  2
STYLE
 70
2
  0
STYLE
  2
STANDARD
 70
64
 40
0
 41
1
 42
0
 50
0
 71
0
  3
TXT
  4
BIGFONT
  0
STYLE
  2
TATEGAKI
 70
68
 40
0
 41
1
 42
0
 50
0
 71
0
  3
TXT
  4
EXTFONT
  0
ENDTAB
  0
TABLE
  2
LAYER
 70
1
  0
LAYER
  2
Layer1
 70
64
 62
7
  6
CONTINUOUS
  0
ENDTAB
  0
ENDSEC
  0
SECTION
  2
ENTITIES
  0
TEXT
  8
Layer1
 62
7
 10
11.7672
 20
195.97
 73
3
 11
11.7672
 21
195.97
 40
10
 41
1
  1
Ｍ３ネジ・その他
  0
CIRCLE
  8
Layer1
  6
CONTINUOUS
 62
7
 10
24.8922
 20
137.586
 40
4.75
  0
CIRCLE
  8
Layer1
  6
CONTINUOUS
 62
7
 10
24.8922
 20
137.586
 40
4
  0
CIRCLE
  8
Layer1
  6
CONTINUOUS
 62
7
 10
24.8922
 20
137.586
 40
1.5
  0
LINE
  8
Layer1
  6
CONTINUOUS
 62
1
 10
24.8922
 20
142.336
 11
24.8922
 21
132.836
  0
LINE
  8
Layer1
  6
CONTINUOUS
 62
1
 10
20.1422
 20
137.586
 11
29.6422
 21
137.586
  0
POLYLINE
  8
Layer1
  6
CONTINUOUS
 62
7
 66
1
 10
0
 20
0
 30
0
 70
1
  0
VERTEX
  8
Layer1
 10
20.1422
 20
163.351
  0
VERTEX
  8
Layer1
 10
20.1422
 20
162.411
  0
VERTEX
  8
Layer1
 10
20.8922
 20
162.411
  0
VERTEX
  8
Layer1
 10
20.8922
 20
159.391
  0
VERTEX
  8
Layer1
 10
28.8922
 20
159.391
  0
VERTEX
  8
Layer1
 10
28.8922
 20
162.411
  0
VERTEX
  8
Layer1
 10
29.6422
 20
162.411
  0
VERTEX
  8
Layer1
 10
29.6422
 20
163.351
  0
VERTEX
  8
Layer1
 10
29.6422
 20
163.351
  0
SEQEND
  0
LINE
  8
Layer1
  6
CONTINUOUS
 62
5
 10
23.3922
 20
163.351
 11
23.3922
 21
159.391
  0
LINE
  8
Layer1
  6
CONTINUOUS
 62
5
 10
26.3922
 20
163.351
 11
26.3922
 21
159.391
  0
LINE
  8
Layer1
  6
CONTINUOUS
 62
7
 10
20.1422
 20
163.351
 11
29.6422
 21
163.351
  0
LINE
  8
Layer1
  6
CONTINUOUS
 62
7
 10
20.1422
 20
162.411
 11
29.6422
 21
162.411
  0
LINE
  8
Layer1
  6
CONTINUOUS
 62
1
 10
24.8922
 20
163.351
 11
24.8922
 21
158.69
  0
LINE
  8
Layer1
  6
CONTINUOUS
 62
7
 10
22.1422
 20
158.69
 11
27.6422
 21
158.69
  0
LINE
  8
Layer1
  6
CONTINUOUS
 62
7
 10
22.1422
 20
159.391
 11
22.1422
 21
158.69
  0
LINE
  8
Layer1
  6
CONTINUOUS
 62
7
 10
27.6422
 20
159.391
 11
27.6422
 21
158.69
  0
LINE
  8
Layer1
  6
CONTINUOUS
 62
7
 10
20.1422
 20
163.351
 11
20.1422
 21
162.411
  0
LINE
  8
Layer1
  6
CONTINUOUS
 62
7
 10
29.6422
 20
163.351
 11
29.6422
 21
162.411
  0
LINE
  8
Layer1
  6
CONTINUOUS
 62
7
 10
20.1422
 20
162.411
 11
29.6422
 21
162.411
  0
LINE
  8
Layer1
  6
CONTINUOUS
 62
7
 10
20.8922
 20
162.411
 11
20.8922
 21
159.391
  0
LINE
  8
Layer1
  6
CONTINUOUS
 62
7
 10
28.8922
 20
162.411
 11
28.8922
 21
159.391
  0
LINE
  8
Layer1
  6
CONTINUOUS
 62
7
 10
20.8922
 20
159.391
 11
28.8922
 21
159.391
  0
POLYLINE
  8
Layer1
  6
CONTINUOUS
 62
5
 66
1
 10
0
 20
0
 30
0
  0
VERTEX
  8
Layer1
 10
22.1922
 20
164.491
  0
VERTEX
  8
Layer1
 10
22.198
 20
164.548
  0
VERTEX
  8
Layer1
 10
22.2153
 20
164.605
  0
VERTEX
  8
Layer1
 10
22.2441
 20
164.661
  0
VERTEX
  8
Layer1
 10
22.2842
 20
164.716
  0
VERTEX
  8
Layer1
 10
22.3355
 20
164.771
  0
VERTEX
  8
Layer1
 10
22.3978
 20
164.824
  0
VERTEX
  8
Layer1
 10
22.4707
 20
164.876
  0
VERTEX
  8
Layer1
 10
22.554
 20
164.926
  0
VERTEX
  8
Layer1
 10
22.6473
 20
164.975
  0
VERTEX
  8
Layer1
 10
22.7502
 20
165.021
  0
VERTEX
  8
Layer1
 10
22.8623
 20
165.065
  0
VERTEX
  8
Layer1
 10
22.9831
 20
165.106
  0
VERTEX
  8
Layer1
 10
23.112
 20
165.145
  0
VERTEX
  8
Layer1
 10
23.2486
 20
165.182
  0
VERTEX
  8
Layer1
 10
23.3922
 20
165.215
  0
VERTEX
  8
Layer1
 10
23.5422
 20
165.245
  0
VERTEX
  8
Layer1
 10
23.6981
 20
165.272
  0
VERTEX
  8
Layer1
 10
23.859
 20
165.295
  0
VERTEX
  8
Layer1
 10
24.0244
 20
165.315
  0
VERTEX
  8
Layer1
 10
24.1934
 20
165.332
  0
VERTEX
  8
Layer1
 10
24.3655
 20
165.345
  0
VERTEX
  8
Layer1
 10
24.5398
 20
165.354
  0
VERTEX
  8
Layer1
 10
24.7157
 20
165.359
  0
VERTEX
  8
Layer1
 10
24.8922
 20
165.361
  0
VERTEX
  8
Layer1
 10
25.0688
 20
165.359
  0
VERTEX
  8
Layer1
 10
25.2447
 20
165.354
  0
VERTEX
  8
Layer1
 10
25.419
 20
165.345
  0
VERTEX
  8
Layer1
 10
25.5911
 20
165.332
  0
VERTEX
  8
Layer1
 10
25.7601
 20
165.315
  0
VERTEX
  8
Layer1
 10
25.9255
 20
165.295
  0
VERTEX
  8
Layer1
 10
26.0864
 20
165.272
  0
VERTEX
  8
Layer1
 10
26.2422
 20
165.245
  0
VERTEX
  8
Layer1
 10
26.3923
 20
165.215
  0
VERTEX
  8
Layer1
 10
26.5359
 20
165.182
  0
VERTEX
  8
Layer1
 10
26.6725
 20
165.145
  0
VERTEX
  8
Layer1
 10
26.8014
 20
165.106
  0
VERTEX
  8
Layer1
 10
26.9222
 20
165.065
  0
VERTEX
  8
Layer1
 10
27.0343
 20
165.021
  0
VERTEX
  8
Layer1
 10
27.1372
 20
164.975
  0
VERTEX
  8
Layer1
 10
27.2305
 20
164.926
  0
VERTEX
  8
Layer1
 10
27.3138
 20
164.876
  0
VERTEX
  8
Layer1
 10
27.3867
 20
164.824
  0
VERTEX
  8
Layer1
 10
27.449
 20
164.771
  0
VERTEX
  8
Layer1
 10
27.5002
 20
164.716
  0
VERTEX
  8
Layer1
 10
27.5404
 20
164.661
  0
VERTEX
  8
Layer1
 10
27.5691
 20
164.605
  0
VERTEX
  8
Layer1
 10
27.5865
 20
164.548
  0
VERTEX
  8
Layer1
 10
27.5922
 20
164.491
  0
SEQEND
  0
POLYLINE
  8
Layer1
  6
CONTINUOUS
 62
7
 66
1
 10
0
 20
0
 30
0
 70
1
  0
VERTEX
  8
Layer1
 10
27.5922
 20
163.351
  0
VERTEX
  8
Layer1
 10
22.1922
 20
163.351
  0
VERTEX
  8
Layer1
 10
22.1922
 20
164.491
  0
VERTEX
  8
Layer1
 10
27.5922
 20
164.491
  0
VERTEX
  8
Layer1
 10
27.5922
 20
164.491
  0
SEQEND
  0
LINE
  8
Layer1
  6
CONTINUOUS
 62
1
 10
24.8922
 20
165.361
 11
24.8922
 21
163.351
  0
LINE
  8
Layer1
  6
CONTINUOUS
 62
7
 10
27.5922
 20
164.491
 11
27.5922
 21
163.351
  0
LINE
  8
Layer1
  6
CONTINUOUS
 62
7
 10
27.5922
 20
163.351
 11
22.1922
 21
163.351
  0
LINE
  8
Layer1
  6
CONTINUOUS
 62
7
 10
22.1922
 20
163.351
 11
22.1922
 21
164.491
  0
CIRCLE
  8
Layer1
  6
CONTINUOUS
 62
7
 10
54.7629
 20
137.586
 40
2.7
  0
POLYLINE
  8
Layer1
  6
CONTINUOUS
 62
7
 66
1
 10
0
 20
0
 30
0
 70
1
  0
VERTEX
  8
Layer1
 10
54.1311
 20
139.636
  0
VERTEX
  8
Layer1
 10
54.1311
 20
138.195
  0
VERTEX
  8
Layer1
 10
52.5826
 20
138.195
  0
VERTEX
  8
Layer1
 10
52.5826
 20
137.027
  0
VERTEX
  8
Layer1
 10
54.1311
 20
137.027
  0
VERTEX
  8
Layer1
 10
54.1311
 20
135.586
  0
VERTEX
  8
Layer1
 10
55.3855
 20
135.586
  0
VERTEX
  8
Layer1
 10
55.3855
 20
137.027
  0
VERTEX
  8
Layer1
 10
56.934
 20
137.027
  0
VERTEX
  8
Layer1
 10
56.934
 20
138.195
  0
VERTEX
  8
Layer1
 10
55.3855
 20
138.195
  0
VERTEX
  8
Layer1
 10
55.3855
 20
139.636
  0
VERTEX
  8
Layer1
 10
55.3855
 20
139.636
  0
SEQEND
  0
LINE
  8
Layer1
  6
CONTINUOUS
 62
1
 10
54.7629
 20
140.286
 11
54.7629
 21
134.886
  0
LINE
  8
Layer1
  6
CONTINUOUS
 62
1
 10
52.0629
 20
137.586
 11
57.4629
 21
137.586
  0
POLYLINE
  8
Layer1
  6
CONTINUOUS
 62
5
 66
1
 10
0
 20
0
 30
0
  0
VERTEX
  8
Layer1
 10
57.4629
 20
161.708
  0
VERTEX
  8
Layer1
 10
57.4572
 20
161.765
  0
VERTEX
  8
Layer1
 10
57.4398
 20
161.822
  0
VERTEX
  8
Layer1
 10
57.4111
 20
161.878
  0
VERTEX
  8
Layer1
 10
57.3709
 20
161.933
  0
VERTEX
  8
Layer1
 10
57.3196
 20
161.988
  0
VERTEX
  8
Layer1
 10
57.2574
 20
162.041
  0
VERTEX
  8
Layer1
 10
57.1845
 20
162.093
  0
VERTEX
  8
Layer1
 10
57.1012
 20
162.143
  0
VERTEX
  8
Layer1
 10
57.0079
 20
162.192
  0
VERTEX
  8
Layer1
 10
56.905
 20
162.238
  0
VERTEX
  8
Layer1
 10
56.7929
 20
162.282
  0
VERTEX
  8
Layer1
 10
56.6721
 20
162.324
  0
VERTEX
  8
Layer1
 10
56.5432
 20
162.362
  0
VERTEX
  8
Layer1
 10
56.4066
 20
162.399
  0
VERTEX
  8
Layer1
 10
56.263
 20
162.432
  0
VERTEX
  8
Layer1
 10
56.1129
 20
162.462
  0
VERTEX
  8
Layer1
 10
55.9571
 20
162.489
  0
VERTEX
  8
Layer1
 10
55.7962
 20
162.512
  0
VERTEX
  8
Layer1
 10
55.6308
 20
162.532
  0
VERTEX
  8
Layer1
 10
55.4617
 20
162.549
  0
VERTEX
  8
Layer1
 10
55.2897
 20
162.562
  0
VERTEX
  8
Layer1
 10
55.1154
 20
162.571
  0
VERTEX
  8
Layer1
 10
54.9395
 20
162.577
  0
VERTEX
  8
Layer1
 10
54.7629
 20
162.578
  0
VERTEX
  8
Layer1
 10
54.5863
 20
162.577
  0
VERTEX
  8
Layer1
 10
54.4105
 20
162.571
  0
VERTEX
  8
Layer1
 10
54.2362
 20
162.562
  0
VERTEX
  8
Layer1
 10
54.0641
 20
162.549
  0
VERTEX
  8
Layer1
 10
53.895
 20
162.532
  0
VERTEX
  8
Layer1
 10
53.7297
 20
162.512
  0
VERTEX
  8
Layer1
 10
53.5688
 20
162.489
  0
VERTEX
  8
Layer1
 10
53.4129
 20
162.462
  0
VERTEX
  8
Layer1
 10
53.2629
 20
162.432
  0
VERTEX
  8
Layer1
 10
53.1193
 20
162.399
  0
VERTEX
  8
Layer1
 10
52.9827
 20
162.362
  0
VERTEX
  8
Layer1
 10
52.8537
 20
162.324
  0
VERTEX
  8
Layer1
 10
52.733
 20
162.282
  0
VERTEX
  8
Layer1
 10
52.6209
 20
162.238
  0
VERTEX
  8
Layer1
 10
52.518
 20
162.192
  0
VERTEX
  8
Layer1
 10
52.4247
 20
162.143
  0
VERTEX
  8
Layer1
 10
52.3414
 20
162.093
  0
VERTEX
  8
Layer1
 10
52.2685
 20
162.041
  0
VERTEX
  8
Layer1
 10
52.2062
 20
161.988
  0
VERTEX
  8
Layer1
 10
52.1549
 20
161.933
  0
VERTEX
  8
Layer1
 10
52.1148
 20
161.878
  0
VERTEX
  8
Layer1
 10
52.086
 20
161.822
  0
VERTEX
  8
Layer1
 10
52.0687
 20
161.765
  0
VERTEX
  8
Layer1
 10
52.0629
 20
161.708
  0
SEQEND
  0
POLYLINE
  8
Layer1
  6
CONTINUOUS
 62
7
 66
1
 10
0
 20
0
 30
0
 70
1
  0
VERTEX
  8
Layer1
 10
52.0629
 20
160.568
  0
VERTEX
  8
Layer1
 10
57.4629
 20
160.568
  0
VERTEX
  8
Layer1
 10
57.4629
 20
161.708
  0
VERTEX
  8
Layer1
 10
52.0629
 20
161.708
  0
VERTEX
  8
Layer1
 10
52.0629
 20
161.708
  0
SEQEND
  0
LINE
  8
Layer1
  6
CONTINUOUS
 62
1
 10
54.7629
 20
162.578
 11
54.7629
 21
160.568
  0
LINE
  8
Layer1
  6
CONTINUOUS
 62
7
 10
52.0629
 20
161.708
 11
52.0629
 21
160.568
  0
LINE
  8
Layer1
  6
CONTINUOUS
 62
7
 10
52.0629
 20
160.568
 11
57.4629
 21
160.568
  0
LINE
  8
Layer1
  6
CONTINUOUS
 62
7
 10
57.4629
 20
160.568
 11
57.4629
 21
161.708
  0
CIRCLE
  8
Layer1
  6
CONTINUOUS
 62
7
 10
81.9333
 20
137.586
 40
2.75
  0
CIRCLE
  8
Layer1
  6
CONTINUOUS
 62
7
 10
81.9333
 20
137.586
 40
1.5
  0
LINE
  8
Layer1
  6
CONTINUOUS
 62
7
 10
81.9333
 20
139.086
 11
81.9333
 21
136.086
  0
LINE
  8
Layer1
  6
CONTINUOUS
 62
7
 10
80.7413
 20
134.836
 11
83.1252
 21
134.836
  0
LINE
  8
Layer1
  6
CONTINUOUS
 62
7
 10
80.4333
 20
137.586
 11
83.3971
 21
137.586
  0
LINE
  8
Layer1
  6
CONTINUOUS
 62
7
 10
80.7413
 20
140.336
 11
83.1252
 21
140.336
  0
LINE
  8
Layer1
  6
CONTINUOUS
 62
7
 10
79.1833
 20
138.778
 11
79.1833
 21
136.394
  0
LINE
  8
Layer1
  6
CONTINUOUS
 62
7
 10
84.6833
 20
138.778
 11
84.6833
 21
136.394
  0
LINE
  8
Layer1
  6
CONTINUOUS
 62
7
 10
83.1252
 20
140.336
 11
84.6833
 21
138.778
  0
LINE
  8
Layer1
  6
CONTINUOUS
 62
7
 10
84.6833
 20
136.394
 11
83.1252
 21
134.836
  0
LINE
  8
Layer1
  6
CONTINUOUS
 62
7
 10
80.7413
 20
134.836
 11
79.1833
 21
136.394
  0
LINE
  8
Layer1
  6
CONTINUOUS
 62
7
 10
80.7413
 20
140.336
 11
79.1833
 21
138.778
  0
LINE
  8
Layer1
  6
CONTINUOUS
 62
7
 10
81.9152
 20
162.269
 11
81.9152
 21
159.972
  0
LINE
  8
Layer1
  6
CONTINUOUS
 62
7
 10
84.6652
 20
162.269
 11
84.6652
 21
159.972
  0
LINE
  8
Layer1
  6
CONTINUOUS
 62
7
 10
83.1071
 20
162.269
 11
83.1071
 21
159.972
  0
LINE
  8
Layer1
  6
CONTINUOUS
 62
7
 10
80.7233
 20
162.269
 11
80.7233
 21
159.972
  0
LINE
  8
Layer1
  6
CONTINUOUS
 62
7
 10
79.1652
 20
162.269
 11
84.6652
 21
162.269
  0
POLYLINE
  8
Layer1
  6
CONTINUOUS
 62
7
 66
1
 10
0
 20
0
 30
0
  0
VERTEX
  8
Layer1
 10
83.1071
 20
161.684
  0
VERTEX
  8
Layer1
 10
83.1046
 20
161.723
  0
VERTEX
  8
Layer1
 10
83.0969
 20
161.761
  0
VERTEX
  8
Layer1
 10
83.0842
 20
161.799
  0
VERTEX
  8
Layer1
 10
83.0665
 20
161.836
  0
VERTEX
  8
Layer1
 10
83.0439
 20
161.872
  0
VERTEX
  8
Layer1
 10
83.0164
 20
161.908
  0
VERTEX
  8
Layer1
 10
82.9842
 20
161.943
  0
VERTEX
  8
Layer1
 10
82.9474
 20
161.977
  0
VERTEX
  8
Layer1
 10
82.9062
 20
162.009
  0
VERTEX
  8
Layer1
 10
82.8608
 20
162.041
  0
VERTEX
  8
Layer1
 10
82.8113
 20
162.07
  0
VERTEX
  8
Layer1
 10
82.758
 20
162.098
  0
VERTEX
  8
Layer1
 10
82.7011
 20
162.124
  0
VERTEX
  8
Layer1
 10
82.6408
 20
162.149
  0
VERTEX
  8
Layer1
 10
82.5774
 20
162.171
  0
VERTEX
  8
Layer1
 10
82.5112
 20
162.191
  0
VERTEX
  8
Layer1
 10
82.4424
 20
162.209
  0
VERTEX
  8
Layer1
 10
82.3713
 20
162.225
  0
VERTEX
  8
Layer1
 10
82.2983
 20
162.238
  0
VERTEX
  8
Layer1
 10
82.2237
 20
162.249
  0
VERTEX
  8
Layer1
 10
82.1477
 20
162.258
  0
VERTEX
  8
Layer1
 10
82.0708
 20
162.264
  0
VERTEX
  8
Layer1
 10
81.9931
 20
162.268
  0
VERTEX
  8
Layer1
 10
81.9152
 20
162.269
  0
VERTEX
  8
Layer1
 10
81.8372
 20
162.268
  0
VERTEX
  8
Layer1
 10
81.7596
 20
162.264
  0
VERTEX
  8
Layer1
 10
81.6827
 20
162.258
  0
VERTEX
  8
Layer1
 10
81.6067
 20
162.249
  0
VERTEX
  8
Layer1
 10
81.5321
 20
162.238
  0
VERTEX
  8
Layer1
 10
81.4591
 20
162.225
  0
VERTEX
  8
Layer1
 10
81.388
 20
162.209
  0
VERTEX
  8
Layer1
 10
81.3192
 20
162.191
  0
VERTEX
  8
Layer1
 10
81.253
 20
162.171
  0
VERTEX
  8
Layer1
 10
81.1896
 20
162.149
  0
VERTEX
  8
Layer1
 10
81.1293
 20
162.124
  0
VERTEX
  8
Layer1
 10
81.0724
 20
162.098
  0
VERTEX
  8
Layer1
 10
81.019
 20
162.07
  0
VERTEX
  8
Layer1
 10
80.9696
 20
162.041
  0
VERTEX
  8
Layer1
 10
80.9241
 20
162.009
  0
VERTEX
  8
Layer1
 10
80.8829
 20
161.977
  0
VERTEX
  8
Layer1
 10
80.8462
 20
161.943
  0
VERTEX
  8
Layer1
 10
80.814
 20
161.908
  0
VERTEX
  8
Layer1
 10
80.7865
 20
161.872
  0
VERTEX
  8
Layer1
 10
80.7639
 20
161.836
  0
VERTEX
  8
Layer1
 10
80.7462
 20
161.799
  0
VERTEX
  8
Layer1
 10
80.7335
 20
161.761
  0
VERTEX
  8
Layer1
 10
80.7258
 20
161.723
  0
VERTEX
  8
Layer1
 10
80.7233
 20
161.684
  0
SEQEND
  0
POLYLINE
  8
Layer1
  6
CONTINUOUS
 62
7
 66
1
 10
0
 20
0
 30
0
  0
VERTEX
  8
Layer1
 10
80.7233
 20
161.684
  0
VERTEX
  8
Layer1
 10
80.7224
 20
161.704
  0
VERTEX
  8
Layer1
 10
80.7199
 20
161.723
  0
VERTEX
  8
Layer1
 10
80.7158
 20
161.742
  0
VERTEX
  8
Layer1
 10
80.7099
 20
161.761
  0
VERTEX
  8
Layer1
 10
80.7024
 20
161.78
  0
VERTEX
  8
Layer1
 10
80.6933
 20
161.799
  0
VERTEX
  8
Layer1
 10
80.6826
 20
161.817
  0
VERTEX
  8
Layer1
 10
80.6702
 20
161.836
  0
VERTEX
  8
Layer1
 10
80.6562
 20
161.854
  0
VERTEX
  8
Layer1
 10
80.6406
 20
161.872
  0
VERTEX
  8
Layer1
 10
80.6234
 20
161.89
  0
VERTEX
  8
Layer1
 10
80.6047
 20
161.908
  0
VERTEX
  8
Layer1
 10
80.5844
 20
161.926
  0
VERTEX
  8
Layer1
 10
80.5626
 20
161.943
  0
VERTEX
  8
Layer1
 10
80.5393
 20
161.96
  0
VERTEX
  8
Layer1
 10
80.5145
 20
161.977
  0
VERTEX
  8
Layer1
 10
80.4883
 20
161.993
  0
VERTEX
  8
Layer1
 10
80.4607
 20
162.009
  0
VERTEX
  8
Layer1
 10
80.4317
 20
162.025
  0
VERTEX
  8
Layer1
 10
80.4013
 20
162.041
  0
VERTEX
  8
Layer1
 10
80.3696
 20
162.056
  0
VERTEX
  8
Layer1
 10
80.3366
 20
162.07
  0
VERTEX
  8
Layer1
 10
80.3024
 20
162.084
  0
VERTEX
  8
Layer1
 10
80.2669
 20
162.098
  0
VERTEX
  8
Layer1
 10
80.2303
 20
162.111
  0
VERTEX
  8
Layer1
 10
80.1925
 20
162.124
  0
VERTEX
  8
Layer1
 10
80.1536
 20
162.137
  0
VERTEX
  8
Layer1
 10
80.1137
 20
162.149
  0
VERTEX
  8
Layer1
 10
80.0727
 20
162.16
  0
VERTEX
  8
Layer1
 10
80.0308
 20
162.171
  0
VERTEX
  8
Layer1
 10
79.988
 20
162.181
  0
VERTEX
  8
Layer1
 10
79.9442
 20
162.191
  0
VERTEX
  8
Layer1
 10
79.8997
 20
162.2
  0
VERTEX
  8
Layer1
 10
79.8543
 20
162.209
  0
VERTEX
  8
Layer1
 10
79.8082
 20
162.217
  0
VERTEX
  8
Layer1
 10
79.7614
 20
162.225
  0
VERTEX
  8
Layer1
 10
79.714
 20
162.232
  0
VERTEX
  8
Layer1
 10
79.666
 20
162.238
  0
VERTEX
  8
Layer1
 10
79.6175
 20
162.244
  0
VERTEX
  8
Layer1
 10
79.5684
 20
162.249
  0
VERTEX
  8
Layer1
 10
79.519
 20
162.254
  0
VERTEX
  8
Layer1
 10
79.4692
 20
162.258
  0
VERTEX
  8
Layer1
 10
79.419
 20
162.262
  0
VERTEX
  8
Layer1
 10
79.3686
 20
162.264
  0
VERTEX
  8
Layer1
 10
79.3179
 20
162.267
  0
VERTEX
  8
Layer1
 10
79.2671
 20
162.268
  0
VERTEX
  8
Layer1
 10
79.2162
 20
162.269
  0
VERTEX
  8
Layer1
 10
79.1652
 20
162.269
  0
SEQEND
  0
POLYLINE
  8
Layer1
  6
CONTINUOUS
 62
7
 66
1
 10
0
 20
0
 30
0
  0
VERTEX
  8
Layer1
 10
83.1071
 20
161.715
  0
VERTEX
  8
Layer1
 10
83.108
 20
161.733
  0
VERTEX
  8
Layer1
 10
83.1105
 20
161.751
  0
VERTEX
  8
Layer1
 10
83.1146
 20
161.769
  0
VERTEX
  8
Layer1
 10
83.1205
 20
161.787
  0
VERTEX
  8
Layer1
 10
83.128
 20
161.805
  0
VERTEX
  8
Layer1
 10
83.1372
 20
161.823
  0
VERTEX
  8
Layer1
 10
83.148
 20
161.841
  0
VERTEX
  8
Layer1
 10
83.1604
 20
161.858
  0
VERTEX
  8
Layer1
 10
83.1745
 20
161.876
  0
VERTEX
  8
Layer1
 10
83.1901
 20
161.893
  0
VERTEX
  8
Layer1
 10
83.2074
 20
161.91
  0
VERTEX
  8
Layer1
 10
83.2262
 20
161.927
  0
VERTEX
  8
Layer1
 10
83.2465
 20
161.944
  0
VERTEX
  8
Layer1
 10
83.2684
 20
161.96
  0
VERTEX
  8
Layer1
 10
83.2918
 20
161.976
  0
VERTEX
  8
Layer1
 10
83.3166
 20
161.992
  0
VERTEX
  8
Layer1
 10
83.3429
 20
162.008
  0
VERTEX
  8
Layer1
 10
83.3707
 20
162.023
  0
VERTEX
  8
Layer1
 10
83.3998
 20
162.038
  0
VERTEX
  8
Layer1
 10
83.4303
 20
162.052
  0
VERTEX
  8
Layer1
 10
83.4621
 20
162.067
  0
VERTEX
  8
Layer1
 10
83.4952
 20
162.08
  0
VERTEX
  8
Layer1
 10
83.5296
 20
162.094
  0
VERTEX
  8
Layer1
 10
83.5652
 20
162.107
  0
VERTEX
  8
Layer1
 10
83.6019
 20
162.12
  0
VERTEX
  8
Layer1
 10
83.6399
 20
162.132
  0
VERTEX
  8
Layer1
 10
83.6789
 20
162.143
  0
VERTEX
  8
Layer1
 10
83.719
 20
162.155
  0
VERTEX
  8
Layer1
 10
83.7601
 20
162.166
  0
VERTEX
  8
Layer1
 10
83.8022
 20
162.176
  0
VERTEX
  8
Layer1
 10
83.8452
 20
162.186
  0
VERTEX
  8
Layer1
 10
83.8891
 20
162.195
  0
VERTEX
  8
Layer1
 10
83.9338
 20
162.204
  0
VERTEX
  8
Layer1
 10
83.9793
 20
162.212
  0
VERTEX
  8
Layer1
 10
84.0256
 20
162.22
  0
VERTEX
  8
Layer1
 10
84.0725
 20
162.227
  0
VERTEX
  8
Layer1
 10
84.1201
 20
162.234
  0
VERTEX
  8
Layer1
 10
84.1683
 20
162.24
  0
VERTEX
  8
Layer1
 10
84.217
 20
162.246
  0
VERTEX
  8
Layer1
 10
84.2663
 20
162.251
  0
VERTEX
  8
Layer1
 10
84.3159
 20
162.255
  0
VERTEX
  8
Layer1
 10
84.3659
 20
162.259
  0
VERTEX
  8
Layer1
 10
84.4163
 20
162.262
  0
VERTEX
  8
Layer1
 10
84.4669
 20
162.265
  0
VERTEX
  8
Layer1
 10
84.5177
 20
162.267
  0
VERTEX
  8
Layer1
 10
84.5687
 20
162.268
  0
VERTEX
  8
Layer1
 10
84.6199
 20
162.269
  0
VERTEX
  8
Layer1
 10
84.671
 20
162.269
  0
SEQEND
  0
LINE
  8
Layer1
  6
CONTINUOUS
 62
7
 10
79.1652
 20
162.269
 11
79.1652
 21
159.972
  0
LINE
  8
Layer1
  6
CONTINUOUS
 62
7
 10
79.1652
 20
159.972
 11
84.6652
 21
159.972
  0
ENDSEC
  0
EOF
