  0
SECTION
  2
HEADER
  9
$EXTMIN
 10
0
 20
0
  9
$EXTMAX
 10
297
 20
210
  9
$LTSCALE
 40
1
  9
$LIMMIN
 10
0
 20
0
  9
$LIMMAX
 10
297
 20
210
  9
$DIMSCALE
 40
1
  0
ENDSEC
  0
SECTION
  2
TABLES
  0
TABLE
  2
LTYPE
 70
9
  0
LTYPE
  2
CONTINUOUS
 70
64
  3
----------
 72
65
 73
0
 40
0
  0
LTYPE
  2
DASHED1
 70
64
  3
--  --  --  --  --  --  --  --  
 72
65
 73
2
 40
2.5
 49
1.25
 49
-1.25
  0
LTYPE
  2
DASHED2
 70
64
  3
----    ----    ----    ----    
 72
65
 73
2
 40
5
 49
2.5
 49
-2.5
  0
LTYPE
  2
DASHED3
 70
64
  3
------  ------  ------  ------  
 72
65
 73
2
 40
5
 49
3.75
 49
-1.25
  0
LTYPE
  2
CENTER1
 70
64
  3
----- - ----- - ----- - ----- - 
 72
65
 73
4
 40
7.5
 49
3.75
 49
-1.25
 49
1.25
 49
-1.25
  0
LTYPE
  2
CENTER2
 70
64
  3
----------  --  ----------  --  
 72
65
 73
4
 40
13.75
 49
6.25
 49
-2.5
 49
2.5
 49
-2.5
  0
LTYPE
  2
PHANTOM1
 70
64
  3
--- - - --- - - --- - - --- - - 
 72
65
 73
6
 40
9.5
 49
3.25
 49
-1.25
 49
1.25
 49
-1.25
 49
1.25
 49
-1.25
  0
LTYPE
  2
PHANTOM2
 70
64
  3
--------  -  -  --------  -  -  
 72
65
 73
6
 40
18
 49
8
 49
-2.5
 49
1.25
 49
-2.5
 49
1.25
 49
-2.5
  0
LTYPE
  2
DOT
 70
64
  3
-   -   -   -   -   -   -   -   
 72
65
 73
2
 40
2.5
 49
0.625
 49
-1.875
  0
LTYPE
  2
HOJO
 70
64
  3
-   -   -   -   -   -   -   -   
 72
65
 73
2
 40
2.5
 49
0.625
 49
-1.875
  0
ENDTAB
  0
TABLE
  2
STYLE
 70
2
  0
STYLE
  2
STANDARD
 70
64
 40
0
 41
1
 42
0
 50
0
 71
0
  3
TXT
  4
BIGFONT
  0
STYLE
  2
TATEGAKI
 70
68
 40
0
 41
1
 42
0
 50
0
 71
0
  3
TXT
  4
EXTFONT
  0
ENDTAB
  0
TABLE
  2
LAYER
 70
1
  0
LAYER
  2
Layer1
 70
64
 62
7
  6
CONTINUOUS
  0
ENDTAB
  0
ENDSEC
  0
SECTION
  2
ENTITIES
  0
LINE
  8
Layer1
  6
CONTINUOUS
 62
7
 10
27.9601
 20
81.7112
 11
27.9601
 21
112.711
  0
LINE
  8
Layer1
  6
CONTINUOUS
 62
7
 10
27.9601
 20
112.711
 11
59.9601
 21
112.711
  0
LINE
  8
Layer1
  6
CONTINUOUS
 62
7
 10
59.9601
 20
112.711
 11
59.9601
 21
81.7112
  0
LINE
  8
Layer1
  6
CONTINUOUS
 62
7
 10
59.9601
 20
81.7112
 11
27.9601
 21
81.7112
  0
LINE
  8
Layer1
  6
CONTINUOUS
 62
7
 10
27.9601
 20
105.711
 11
59.9601
 21
105.711
  0
LINE
  8
Layer1
  6
CONTINUOUS
 62
7
 10
59.9601
 20
107.711
 11
65.9601
 21
107.711
  0
LINE
  8
Layer1
  6
CONTINUOUS
 62
7
 10
65.9601
 20
107.711
 11
65.9601
 21
105.711
  0
LINE
  8
Layer1
  6
CONTINUOUS
 62
7
 10
65.9601
 20
105.711
 11
59.9601
 21
105.711
  0
LINE
  8
Layer1
  6
CONTINUOUS
 62
7
 10
21.9601
 20
105.711
 11
21.9601
 21
107.711
  0
LINE
  8
Layer1
  6
CONTINUOUS
 62
7
 10
27.9601
 20
107.711
 11
59.9601
 21
107.711
  0
LINE
  8
Layer1
  6
CONTINUOUS
 62
7
 10
30.8601
 20
112.711
 11
30.8601
 21
114.711
  0
LINE
  8
Layer1
  6
CONTINUOUS
 62
5
 10
37.1101
 20
114.711
 11
37.1141
 21
81.7112
  0
LINE
  8
Layer1
  6
CONTINUOUS
 62
5
 10
24.5546
 20
105.727
 11
24.5491
 21
107.711
  0
LINE
  8
Layer1
  6
CONTINUOUS
 62
5
 10
63.4216
 20
105.711
 11
63.4216
 21
107.711
  0
LINE
  8
Layer1
  6
CONTINUOUS
 62
7
 10
30.8601
 20
114.711
 11
43.3601
 21
114.711
  0
LINE
  8
Layer1
  6
CONTINUOUS
 62
7
 10
43.3601
 20
114.711
 11
43.3601
 21
112.711
  0
LINE
  8
Layer1
  6
CONTINUOUS
 62
7
 10
21.9601
 20
107.711
 11
27.9601
 21
107.711
  0
LINE
  8
Layer1
  6
CONTINUOUS
 62
7
 10
27.9601
 20
105.711
 11
21.9601
 21
105.711
  0
LINE
  8
Layer1
  6
CONTINUOUS
 62
7
 10
100.937
 20
81.7927
 11
100.937
 21
112.793
  0
LINE
  8
Layer1
  6
CONTINUOUS
 62
7
 10
100.937
 20
112.793
 11
117.537
 21
112.793
  0
LINE
  8
Layer1
  6
CONTINUOUS
 62
7
 10
117.537
 20
112.793
 11
117.537
 21
81.7927
  0
LINE
  8
Layer1
  6
CONTINUOUS
 62
7
 10
117.537
 20
81.7927
 11
100.937
 21
81.7927
  0
LINE
  8
Layer1
  6
CONTINUOUS
 62
7
 10
100.937
 20
107.81
 11
117.473
 21
107.81
  0
LINE
  8
Layer1
  6
CONTINUOUS
 62
7
 10
100.937
 20
105.81
 11
117.473
 21
105.81
  0
LINE
  8
Layer1
  6
CONTINUOUS
 62
5
 10
109.237
 20
81.7927
 11
109.237
 21
114.793
  0
LINE
  8
Layer1
  6
CONTINUOUS
 62
7
 10
102.987
 20
112.793
 11
102.987
 21
114.793
  0
LINE
  8
Layer1
  6
CONTINUOUS
 62
7
 10
102.987
 20
114.793
 11
115.487
 21
114.793
  0
LINE
  8
Layer1
  6
CONTINUOUS
 62
7
 10
115.487
 20
114.793
 11
115.487
 21
112.793
  0
LINE
  8
Layer1
  6
CONTINUOUS
 62
5
 10
113.47
 20
105.81
 11
113.47
 21
107.81
  0
LINE
  8
Layer1
  6
CONTINUOUS
 62
5
 10
105.059
 20
105.81
 11
105.059
 21
107.81
  0
POLYLINE
  8
Layer1
  6
CONTINUOUS
 62
7
 66
1
 10
0
 20
0
 30
0
 70
1
  0
VERTEX
  8
Layer1
 10
28.2575
 20
160.93
  0
VERTEX
  8
Layer1
 10
58.7575
 20
160.93
  0
VERTEX
  8
Layer1
 10
58.7575
 20
145.93
  0
VERTEX
  8
Layer1
 10
28.2575
 20
145.93
  0
SEQEND
  0
POLYLINE
  8
Layer1
  6
CONTINUOUS
 62
7
 66
1
 10
0
 20
0
 30
0
 70
1
  0
VERTEX
  8
Layer1
 10
27.5075
 20
145.18
  0
VERTEX
  8
Layer1
 10
59.5075
 20
145.18
  0
VERTEX
  8
Layer1
 10
59.5075
 20
161.68
  0
VERTEX
  8
Layer1
 10
27.5075
 20
161.68
  0
SEQEND
  0
LINE
  8
Layer1
  6
CONTINUOUS
 62
7
 10
21.5066
 20
161.73
 11
21.5066
 21
145.129
  0
LINE
  8
Layer1
  6
CONTINUOUS
 62
7
 10
27.5075
 20
145.129
 11
21.5066
 21
145.129
  0
LINE
  8
Layer1
  6
CONTINUOUS
 62
7
 10
21.5066
 20
161.73
 11
27.5075
 21
161.73
  0
LINE
  8
Layer1
  6
CONTINUOUS
 62
5
 10
26.5604
 20
145.097
 11
26.5604
 21
161.72
  0
CIRCLE
  8
Layer1
  6
CONTINUOUS
 62
7
 10
24.0712
 20
149.214
 40
2.5
  0
CIRCLE
  8
Layer1
  6
CONTINUOUS
 62
7
 10
24.0712
 20
157.625
 40
2.5
  0
LINE
  8
Layer1
  6
CONTINUOUS
 62
5
 10
24.0712
 20
146.714
 11
24.0712
 21
160.125
  0
LINE
  8
Layer1
  6
CONTINUOUS
 62
5
 10
26.5712
 20
157.625
 11
21.5712
 21
157.625
  0
LINE
  8
Layer1
  6
CONTINUOUS
 62
5
 10
26.5712
 20
149.214
 11
21.5712
 21
149.214
  0
LINE
  8
Layer1
  6
CONTINUOUS
 62
7
 10
65.5084
 20
161.73
 11
65.5084
 21
145.129
  0
LINE
  8
Layer1
  6
CONTINUOUS
 62
7
 10
59.5075
 20
145.129
 11
65.5084
 21
145.129
  0
LINE
  8
Layer1
  6
CONTINUOUS
 62
7
 10
65.5084
 20
161.73
 11
59.5075
 21
161.73
  0
LINE
  8
Layer1
  6
CONTINUOUS
 62
5
 10
60.4545
 20
145.097
 11
60.4545
 21
161.72
  0
CIRCLE
  8
Layer1
  6
CONTINUOUS
 62
7
 10
62.9437
 20
149.214
 40
2.5
  0
CIRCLE
  8
Layer1
  6
CONTINUOUS
 62
7
 10
62.9437
 20
157.625
 40
2.5
  0
LINE
  8
Layer1
  6
CONTINUOUS
 62
5
 10
62.9437
 20
146.714
 11
62.9437
 21
160.125
  0
LINE
  8
Layer1
  6
CONTINUOUS
 62
5
 10
60.4437
 20
157.625
 11
65.4437
 21
157.625
  0
LINE
  8
Layer1
  6
CONTINUOUS
 62
5
 10
60.4437
 20
149.214
 11
65.4437
 21
149.214
  0
LINE
  8
Layer1
  6
CONTINUOUS
 62
5
 10
37.3822
 20
161.757
 11
37.3822
 21
145.103
  0
CIRCLE
  8
Layer1
  6
CONTINUOUS
 62
7
 10
37.3822
 20
153.43
 40
6.25
  0
CIRCLE
  8
Layer1
  6
CONTINUOUS
 62
1
 10
58.0075
 20
160.18
 40
1.5
  0
CIRCLE
  8
Layer1
  6
CONTINUOUS
 62
1
 10
58.0075
 20
146.68
 40
1.5
  0
CIRCLE
  8
Layer1
  6
CONTINUOUS
 62
1
 10
29.0075
 20
146.68
 40
1.5
  0
CIRCLE
  8
Layer1
  6
CONTINUOUS
 62
1
 10
29.0075
 20
160.18
 40
1.5
  0
CIRCLE
  8
Layer1
  6
CONTINUOUS
 62
7
 10
29.0075
 20
160.18
 40
0.75
  0
CIRCLE
  8
Layer1
  6
CONTINUOUS
 62
7
 10
29.0075
 20
146.68
 40
0.75
  0
CIRCLE
  8
Layer1
  6
CONTINUOUS
 62
7
 10
58.0075
 20
146.68
 40
0.75
  0
CIRCLE
  8
Layer1
  6
CONTINUOUS
 62
7
 10
58.0075
 20
160.18
 40
0.75
  0
LINE
  8
Layer1
  6
CONTINUOUS
 62
5
 10
28.2575
 20
153.43
 11
58.7575
 21
153.43
  0
TEXT
  8
Layer1
 62
7
 10
11.7672
 20
195.97
 73
3
 11
11.7672
 21
195.97
 40
10
 41
1
  1
HITEC ＨＳ－５２４５ＭＧ
  0
ENDSEC
  0
EOF
