  0
SECTION
  2
HEADER
  9
$EXTMIN
 10
0
 20
0
  9
$EXTMAX
 10
297
 20
210
  9
$LTSCALE
 40
1
  9
$LIMMIN
 10
0
 20
0
  9
$LIMMAX
 10
297
 20
210
  9
$DIMSCALE
 40
1
  0
ENDSEC
  0
SECTION
  2
TABLES
  0
TABLE
  2
LTYPE
 70
9
  0
LTYPE
  2
CONTINUOUS
 70
64
  3
----------
 72
65
 73
0
 40
0
  0
LTYPE
  2
DASHED1
 70
64
  3
--  --  --  --  --  --  --  --  
 72
65
 73
2
 40
2.5
 49
1.25
 49
-1.25
  0
LTYPE
  2
DASHED2
 70
64
  3
----    ----    ----    ----    
 72
65
 73
2
 40
5
 49
2.5
 49
-2.5
  0
LTYPE
  2
DASHED3
 70
64
  3
------  ------  ------  ------  
 72
65
 73
2
 40
5
 49
3.75
 49
-1.25
  0
LTYPE
  2
CENTER1
 70
64
  3
----- - ----- - ----- - ----- - 
 72
65
 73
4
 40
7.5
 49
3.75
 49
-1.25
 49
1.25
 49
-1.25
  0
LTYPE
  2
CENTER2
 70
64
  3
----------  --  ----------  --  
 72
65
 73
4
 40
13.75
 49
6.25
 49
-2.5
 49
2.5
 49
-2.5
  0
LTYPE
  2
PHANTOM1
 70
64
  3
--- - - --- - - --- - - --- - - 
 72
65
 73
6
 40
9.5
 49
3.25
 49
-1.25
 49
1.25
 49
-1.25
 49
1.25
 49
-1.25
  0
LTYPE
  2
PHANTOM2
 70
64
  3
--------  -  -  --------  -  -  
 72
65
 73
6
 40
18
 49
8
 49
-2.5
 49
1.25
 49
-2.5
 49
1.25
 49
-2.5
  0
LTYPE
  2
DOT
 70
64
  3
-   -   -   -   -   -   -   -   
 72
65
 73
2
 40
2.5
 49
0.625
 49
-1.875
  0
LTYPE
  2
HOJO
 70
64
  3
-   -   -   -   -   -   -   -   
 72
65
 73
2
 40
2.5
 49
0.625
 49
-1.875
  0
ENDTAB
  0
TABLE
  2
STYLE
 70
2
  0
STYLE
  2
STANDARD
 70
64
 40
0
 41
1
 42
0
 50
0
 71
0
  3
TXT
  4
BIGFONT
  0
STYLE
  2
TATEGAKI
 70
68
 40
0
 41
1
 42
0
 50
0
 71
0
  3
TXT
  4
EXTFONT
  0
ENDTAB
  0
TABLE
  2
LAYER
 70
1
  0
LAYER
  2
Layer1
 70
64
 62
7
  6
CONTINUOUS
  0
ENDTAB
  0
ENDSEC
  0
SECTION
  2
ENTITIES
  0
LINE
  8
Layer1
  6
CONTINUOUS
 62
7
 10
23.1973
 20
170.612
 11
23.1973
 21
187.112
  0
LINE
  8
Layer1
  6
CONTINUOUS
 62
7
 10
35.1973
 20
191.762
 11
89.1973
 21
191.762
  0
LINE
  8
Layer1
  6
CONTINUOUS
 62
7
 10
89.1973
 20
191.762
 11
89.1973
 21
165.962
  0
LINE
  8
Layer1
  6
CONTINUOUS
 62
7
 10
89.1973
 20
165.962
 11
35.1973
 21
165.962
  0
LINE
  8
Layer1
  6
CONTINUOUS
 62
7
 10
35.1973
 20
191.762
 11
35.1973
 21
165.962
  0
CIRCLE
  8
Layer1
  6
CONTINUOUS
 62
7
 10
37.1973
 20
168.462
 40
1
  0
CIRCLE
  8
Layer1
  6
CONTINUOUS
 62
7
 10
37.1973
 20
189.262
 40
1
  0
LINE
  8
Layer1
  6
CONTINUOUS
 62
7
 10
74.1973
 20
191.762
 11
74.1973
 21
165.962
  0
LINE
  8
Layer1
  6
CONTINUOUS
 62
7
 10
30.1973
 20
194.362
 11
30.1973
 21
163.362
  0
LINE
  8
Layer1
  6
CONTINUOUS
 62
7
 10
29.1973
 20
194.362
 11
29.1973
 21
163.362
  0
LINE
  8
Layer1
  6
CONTINUOUS
 62
7
 10
23.1973
 20
187.112
 11
29.1973
 21
187.112
  0
LINE
  8
Layer1
  6
CONTINUOUS
 62
7
 10
23.1973
 20
170.612
 11
29.1973
 21
170.612
  0
LINE
  8
Layer1
  6
CONTINUOUS
 62
7
 10
35.1973
 20
188.362
 11
30.1973
 21
188.362
  0
LINE
  8
Layer1
  6
CONTINUOUS
 62
7
 10
35.1973
 20
169.362
 11
30.1973
 21
169.362
  0
LINE
  8
Layer1
  6
CONTINUOUS
 62
7
 10
29.1973
 20
194.362
 11
30.1973
 21
194.362
  0
LINE
  8
Layer1
  6
CONTINUOUS
 62
7
 10
29.1973
 20
163.362
 11
30.1973
 21
163.362
  0
LINE
  8
Layer1
  6
CONTINUOUS
 62
7
 10
67.1973
 20
191.262
 11
67.1973
 21
182.762
  0
LINE
  8
Layer1
  6
CONTINUOUS
 62
7
 10
58.6973
 20
191.262
 11
58.6973
 21
182.762
  0
LINE
  8
Layer1
  6
CONTINUOUS
 62
7
 10
67.1973
 20
191.262
 11
58.6973
 21
191.262
  0
LINE
  8
Layer1
  6
CONTINUOUS
 62
7
 10
67.1973
 20
182.762
 11
58.6973
 21
182.762
  0
LINE
  8
Layer1
  6
CONTINUOUS
 62
7
 10
23.1973
 20
135.895
 11
23.1973
 21
152.395
  0
LINE
  8
Layer1
  6
CONTINUOUS
 62
7
 10
35.1973
 20
157.045
 11
89.1973
 21
157.045
  0
LINE
  8
Layer1
  6
CONTINUOUS
 62
7
 10
89.1973
 20
157.045
 11
89.1973
 21
131.245
  0
LINE
  8
Layer1
  6
CONTINUOUS
 62
7
 10
89.1973
 20
131.245
 11
35.1973
 21
131.245
  0
LINE
  8
Layer1
  6
CONTINUOUS
 62
7
 10
35.1973
 20
157.045
 11
35.1973
 21
131.245
  0
CIRCLE
  8
Layer1
  6
CONTINUOUS
 62
7
 10
37.1973
 20
133.745
 40
1
  0
CIRCLE
  8
Layer1
  6
CONTINUOUS
 62
7
 10
37.1973
 20
154.545
 40
1
  0
LINE
  8
Layer1
  6
CONTINUOUS
 62
7
 10
45.1973
 20
157.045
 11
45.1973
 21
131.245
  0
LINE
  8
Layer1
  6
CONTINUOUS
 62
7
 10
30.1973
 20
159.645
 11
30.1973
 21
128.645
  0
LINE
  8
Layer1
  6
CONTINUOUS
 62
7
 10
29.1973
 20
159.645
 11
29.1973
 21
128.645
  0
LINE
  8
Layer1
  6
CONTINUOUS
 62
7
 10
23.1973
 20
152.395
 11
29.1973
 21
152.395
  0
LINE
  8
Layer1
  6
CONTINUOUS
 62
7
 10
23.1973
 20
135.895
 11
29.1973
 21
135.895
  0
LINE
  8
Layer1
  6
CONTINUOUS
 62
7
 10
35.1973
 20
153.645
 11
30.1973
 21
153.645
  0
LINE
  8
Layer1
  6
CONTINUOUS
 62
7
 10
35.1973
 20
134.645
 11
30.1973
 21
134.645
  0
LINE
  8
Layer1
  6
CONTINUOUS
 62
7
 10
29.1973
 20
159.645
 11
30.1973
 21
159.645
  0
LINE
  8
Layer1
  6
CONTINUOUS
 62
7
 10
29.1973
 20
128.645
 11
30.1973
 21
128.645
  0
LINE
  8
Layer1
  6
CONTINUOUS
 62
7
 10
109.145
 20
191.762
 11
115.145
 21
191.762
  0
LINE
  8
Layer1
  6
CONTINUOUS
 62
7
 10
109.145
 20
165.962
 11
115.145
 21
165.962
  0
LINE
  8
Layer1
  6
CONTINUOUS
 62
7
 10
103.145
 20
191.262
 11
103.145
 21
182.762
  0
LINE
  8
Layer1
  6
CONTINUOUS
 62
7
 10
115.145
 20
191.762
 11
115.145
 21
165.962
  0
LINE
  8
Layer1
  6
CONTINUOUS
 62
7
 10
110.645
 20
191.762
 11
110.645
 21
165.962
  0
LINE
  8
Layer1
  6
CONTINUOUS
 62
7
 10
109.145
 20
191.762
 11
109.145
 21
165.962
  0
LINE
  8
Layer1
  6
CONTINUOUS
 62
7
 10
103.145
 20
191.262
 11
109.145
 21
191.262
  0
LINE
  8
Layer1
  6
CONTINUOUS
 62
7
 10
103.145
 20
182.762
 11
109.145
 21
182.762
  0
LINE
  8
Layer1
  6
CONTINUOUS
 62
7
 10
104.145
 20
194.362
 11
115.645
 21
194.362
  0
LINE
  8
Layer1
  6
CONTINUOUS
 62
7
 10
104.145
 20
163.362
 11
115.645
 21
163.362
  0
LINE
  8
Layer1
  6
CONTINUOUS
 62
7
 10
103.645
 20
191.262
 11
103.645
 21
193.862
  0
LINE
  8
Layer1
  6
CONTINUOUS
 62
7
 10
103.645
 20
182.762
 11
103.645
 21
163.862
  0
ARC
  8
Layer1
  6
CONTINUOUS
 62
7
 10
115.645
 20
163.862
 40
0.5
 50
270
 51
0
  0
ARC
  8
Layer1
  6
CONTINUOUS
 62
7
 10
104.145
 20
193.862
 40
0.5
 50
90
 51
180
  0
ARC
  8
Layer1
  6
CONTINUOUS
 62
7
 10
104.145
 20
163.862
 40
0.5
 50
180
 51
270
  0
ARC
  8
Layer1
  6
CONTINUOUS
 62
7
 10
115.645
 20
193.862
 40
0.5
 50
0
 51
90
  0
LINE
  8
Layer1
  6
CONTINUOUS
 62
7
 10
116.145
 20
193.862
 11
116.145
 21
163.862
  0
CIRCLE
  8
Layer1
  6
CONTINUOUS
 62
7
 10
109.895
 20
191.362
 40
1.5
  0
CIRCLE
  8
Layer1
  6
CONTINUOUS
 62
7
 10
109.895
 20
166.362
 40
1.5
  0
LINE
  8
Layer1
  6
CONTINUOUS
 62
7
 10
23.1973
 20
121.078
 11
23.1973
 21
113.078
  0
LINE
  8
Layer1
  6
CONTINUOUS
 62
7
 10
29.1973
 20
122.983
 11
29.1973
 21
110.983
  0
LINE
  8
Layer1
  6
CONTINUOUS
 62
7
 10
30.1973
 20
122.983
 11
30.1973
 21
110.983
  0
LINE
  8
Layer1
  6
CONTINUOUS
 62
7
 10
35.1973
 20
122.328
 11
35.1973
 21
111.828
  0
LINE
  8
Layer1
  6
CONTINUOUS
 62
7
 10
45.1973
 20
116.173
 11
45.1973
 21
111.983
  0
LINE
  8
Layer1
  6
CONTINUOUS
 62
7
 10
58.6973
 20
123.983
 11
58.6973
 21
117.983
  0
LINE
  8
Layer1
  6
CONTINUOUS
 62
7
 10
67.1973
 20
123.983
 11
67.1973
 21
117.983
  0
LINE
  8
Layer1
  6
CONTINUOUS
 62
7
 10
74.1973
 20
117.983
 11
74.1973
 21
116.173
  0
LINE
  8
Layer1
  6
CONTINUOUS
 62
7
 10
89.1973
 20
116.173
 11
89.1973
 21
111.983
  0
LINE
  8
Layer1
  6
CONTINUOUS
 62
7
 10
67.1973
 20
123.983
 11
58.6973
 21
123.983
  0
LINE
  8
Layer1
  6
CONTINUOUS
 62
7
 10
89.1973
 20
111.983
 11
45.1973
 21
111.983
  0
LINE
  8
Layer1
  6
CONTINUOUS
 62
7
 10
30.1973
 20
122.983
 11
29.1973
 21
122.983
  0
LINE
  8
Layer1
  6
CONTINUOUS
 62
7
 10
30.1973
 20
110.983
 11
29.1973
 21
110.983
  0
LINE
  8
Layer1
  6
CONTINUOUS
 62
7
 10
89.1973
 20
116.173
 11
35.1973
 21
116.173
  0
LINE
  8
Layer1
  6
CONTINUOUS
 62
7
 10
74.1973
 20
117.983
 11
35.1973
 21
117.983
  0
LINE
  8
Layer1
  6
CONTINUOUS
 62
7
 10
30.1973
 20
122.328
 11
35.1973
 21
122.328
  0
LINE
  8
Layer1
  6
CONTINUOUS
 62
7
 10
30.1973
 20
111.828
 11
35.1973
 21
111.828
  0
LINE
  8
Layer1
  6
CONTINUOUS
 62
7
 10
29.1973
 20
121.078
 11
23.1973
 21
121.078
  0
LINE
  8
Layer1
  6
CONTINUOUS
 62
7
 10
29.1973
 20
113.078
 11
23.1973
 21
113.078
  0
ENDSEC
  0
EOF
